Def Leppard - Long Long Way To Go Chords & Tabs

 

Long Long Way To Go Chords & Tabs

Def Leppard Chords & Tabs

Version: 1 Type: Tab 0 ratings
1 star 2 stars 3 stars 4 stars 5 stars
comments

Long Long Way To Go Tab

ARTIST: Def Leppard
TITLE: Long Long Way To Go
ALBUM: X
TABBED BY: Martin Kelly

This is a complete tab version.

INTRO

Spanish Guitar
Eb-----------------------------------------------------------------------------------------
Bb-----------------------------------------------------------------------------------------
Gb--6-8-9--------------------------------------6-8-9---------------------------------------
Db---------------6-7--9-11-------------------6--------------6-7--9-11----------------------
Ab--------------------------7--/9--7-----------------------------------7--/9--7------------
Eb-----------------------------------9-7----------------------------------------9-7--------
[Electric Left
Eb--------11/12--------------------------------------11/12---------------------------------
Bb-----------------------------------------------------------------------------------------
Gb-----------------------------------------------------------------------------------------
Db-----------------------------------------------------------------------------------------
Ab-----------------------------------------------------------------------------------------
Eb-----------------------------------------------------------------------------------------
[Electric right
Eb-----------------------------------------------------------------------------------------
Bb-----------------------------------------------------------------------------------------
Gb-------------9------------------------------------------9--------------------------------
Db-------------9------------------------------------------9--------------------------------
Ab-------------7------------------------------------------7--------------------------------
Eb-----------------------------------------------------------------------------------------

All Guitars
Eb----------
Bb----------
Gb--6-4-6---
Db----------
Ab----------
Eb----------

VERSE

Eb-----------------------------------------------------------------------------------------
Bb-----------------------------------------------------------------------------------------
Gb------------------9----8--8'9'8-6-4-6--------------9---8---9'11'9------------------------
Db------------------------------------------------------------------9/11-------------------
Ab-----------------------------------------------------------------------------------------
Eb-----------------------------------------------------------------------------------------

Spanish guitar
Eb-----------------------------------------------------------------------------------------
Bb-----------------------------------------------------------------------------------------
Gb-------9------8--------9---9-----11-----------9-11---------------------------------------
Db-------9------9--------9---9-----11-----11-13--------------------------------------------
Ab-----------------------------------------------------------------------------------------
Eb-----------------------------------------------------------------------------------------
[Electric right
Eb-----------------------------------------------------------------------------------------
Bb-----------------------------------------------------------------------------------------
Gb-----------------------------------------------------------------------------------------
Db------------------------------------------------------9'11'9-----------------------------
Ab-------------------------------------------------------------12-11-----------------------
Eb-----------------------------------------------------------------------------------------
[ Tab from: http://www.guitartabs.cc/tabs/d/def_leppard/long_long_way_to_go_tab.html ]
VERSES 2+3
	Repeat twice      [
Eb-----------------------------------------------------------------------------------------
Bb-----------------------------------------------------------------------------------------
Gb--6-----2------------4-------2------4----------------------------------------------------
Db--6-----2-----2------4-------2------4----------------------------------------------------
Ab--4-----0-----2------2-------0------2----------------------------------------------------
Eb--------------0--------------------------------------------------------------------------

PRE-CHORUS

Eb-----------------------------------------------------------------------------------------
Bb-----------------------------------------------------------------------------------------
Gb--------------------2----------4----------6---------------2-------4----------------------
Db--4-------6---------2----------4----------6-------2-------2-------4----------------------
Ab--4-------6---------0----------2----------4-------2-------0-------2----------------------
Eb--2-------4---------------------------------------0--------------------------------------

CHORUS/ENDING

Eb-----------------------------------------------------------------------------------------
Bb-----------------------------------------------------------------------------------------
Gb--2-------------4-----------------2--------6--------4-------2----------------4-----------
Db--2-----2-------4--------6--------2--------6--------4-------2-------2--------4-------6---
Ab--0-----2-------2--------6--------0--------4--------2-------0-------2--------2-------6---
Eb--------0----------------4------------------------------------------0----------------4---

Eb-----------------------------------------------------------------------------------------
Bb-----------------------------------------------------------------------------------------
Gb------------2----------4-----------------------------------------------------------------
Db--4---------2----------4-----------------------------------------------------------------
Ab--4---------0----------2-----------------------------------------------------------------
Eb--2--------------------------------------------------------------------------------------

Electrics play the Intro parts, with one taking the Spanish guitar part.

VERSE 3 [Spanish Guitar]

Eb------------------------------------------------------------9-11-12----------------------
Bb----------------------------------------------------------9------------------------------
Gb-------------------9--8---------8-9-11/13-----------------------------------9--11/13-----
Db-------------------------11--9------------------------------------------11---------------
Ab-----------------------------------------------------------------------------------------
Eb-----------------------------------------------------------------------------------------

Eb-----------------------------------------------------------------------------------------
Bb-----------------------------------------------------------------------------------------
Gb------11'13--11--11-9-8------------------------------------------------------------------
Db-------------------------11--------------------------------------------------------------
Ab-----------------------------------------------------------------------------------------
Eb-----------------------------------------------------------------------------------------

BRIDGE

Eb-----------------------------------------------------------------------------------------
Bb-----------------------------------------------------------------------------------------
Gb--2---------6----------4-----------------------2-----------------------4------2----------
Db--2---------6----------4----------6------------2------------2----------4------2----------
Ab--0---------4----------2----------6------------0------------2----------2------0----------
Eb----------------------------------4-------------------------0----------------------------

Eb-----------------------------------------------------------------------------------------
Bb-----------------------------------------------------------------------------------------
Gb--6----------4-------------------------------------------2-------4-----------------------
Db--6----------4---------6----------4------------6---------2-------4-----------------------
Ab--4----------2---------6----------4------------6---------0-------2-----------------------
Eb-----------------------4----------2------------4-----------------------------------------


For more tabs, contact martin.n.kelly@ntlworld.com
Comments