Def Leppard - Have You Ever Needed Someone So Bad Chords & Tabs

 

Have You Ever Needed Someone So Bad Chords & Tabs

Def Leppard Chords & Tabs

Version: 1 Type: Bass Tab 0 ratings
1 star 2 stars 3 stars 4 stars 5 stars
comments

Have You Ever Needed Someone So Bad Bass Tab

DEF LEPPARD
HAVE YOU EVER NEEDED SOMEONE SO BAD
tabbed by saturns_bassman

intro:
g|----------------------------||
d|----------------------------||
a|--------0-00-2--------0-00*-||
e|0-00-0---------0-00-0-------||

verse 1:
g|--------------------------------------------------------------||
d|--------------------------------------------------------------||
a|--------0-00--------0-00-2--------0-00-------2--------0-00----||
e|-0-00-0------0-00-0---------0-00-------0h2/4---0-00-0------9\-||

pre-chorus:
g|--------------------------------------------------------||
d|--------------------------------------------------------||
a|-22222222-00-2/4------------------222222222-00-2/4------||
e|------------------000-2-0-3-4-5-6------------------0-00-||

chorus:
g|--------------------------------------------------------------------|
d|--------------------------------------------------------------------|
a|-4444-000-222222222222----------00000000-444444444444-000000000000--|
e|-----------------------00000000-------------------------------------|
(next line)
 |--------------------------------------------------------------------|
 |--------------------------------------------------------------------|
 |-4444-2222-00-0*----------------------------------------------------|
 |--------------------------------------------------------------------|

chorus break:
g|-----------------------------------------||
d|----0--7---------------------------------||
a|-0--------7-6-----6h7p7----------0-----0-||
e|---------------7---------7\--00-----0----||
[ Tab from: http://www.guitartabs.cc/tabs/d/def_leppard/have_you_ever_needed_someone_so_bad_btab.html ]
verse 2:
g|----------------------------------------------------------------||
d|------------------------3h5p3\----------------------------------||
a|-------0-00--------0-00-------------0-00-------2--------0-00----||
e|0-00-0------0-00-0-------------0-00------0h2/4---0-00-0------9\-||

then play:
pre-chorus
chorus

during solo and build up:
g|-------------------------------------------------------------------------|
d|-------------------------------------------------------------------------|
a|-22-----00-----22--2-00----0----22-----00-----22--2-00-----22--2---0-0-2*|
e|-----0------0------------0---0------0------0------------0--------0-------|

chorus after solo:
g|------------------------------------------------------------------------|
d|------------------------------------------------------------------------|
a|-0^-0^-0^--222222222222----------000000000000-444444444444-000000000000-|
e|------------------------00000000----------------------------------------|
from chorus above:                                        (next line)
|------------------------------------------------------------------------|
|------------------------------------------------------------------------|
|-42-02----4444-000-222222222222----------000000000000-444444444444-0000-|
|-------0------------------------00000000--------------------------------|

|----------------------------------------------------------------||
|----------------------------------------------------------------||
|-00000000-4444-2222-00-0*---------0-00--2--------0-00-0-------2-||
|---------------------------0-00-0---------0-00-0--------0-2-4---||

outro:
g|----------------------------||
d|----------------------------||repeat 2
a|--------0-00--2--------0-00-||and fade
e|-0-00-0---------0-00-0------||

there are some fills here and there i tabbed out above so listen to the timeing for know 
to hit them all hope you enjoy!!
please rate and leave comment if possible
Comments