Def Leppard - Foolin Chords & Tabs

 

Foolin Chords & Tabs

Def Leppard Chords & Tabs

Version: 1 Type: Bass Tab

Foolin Bass Tab

   
Band:Def leppard
Song:foolin
Album:pyromania



   "ON AND ON WE RODE......"

G/-----------4-------------------\
D/--------7--------------------3-  \  INTRO/VERSE
A/-0--/7-------------------------  /  X 4
E/--------------------1----------/


    "IS ANYBODY OUT...."
G/---------------------------------------------------------------]
D/---------------------------------------------------------------]
A/-0-0-0-0-0-0-0-0-0-0-0-0-3--------0-0-0-0-0-0-0-0-0-0-0-0-3/5-3]
E/------------------------------3--------------------------------]
                                                                
G/---------------------------------------------------------------]
D/---------------------------------------------------------------]
A/-0-0-0-0-0-0-0-0-0-0-0-0-3--------0-------------------0-------1]
E/------------------------------3-------0---1---3---3------------]
[ Tab from: http://www.guitartabs.cc/tabs/d/def_leppard/foolin_btab.html ]
   
    "OH, JUST GOTTA LET GO....."
G/------------------------------------------------------------]
D/------------------------------------------------------------]
A/-1-1-1-1-1-1-1-1-1-1-1-1-1-1-3-3-3-3-3-3-3-3-3-3-3-3-3-3----]
E/------------------------------------------------------------]
                                                             
G/------------------------------------------------------------]
D/------------------------------------------------------------]
A/-5-5-5-5-5-5-5-5-5-5-5-5-5-5-7-7-7-7-7-7-7-7-3-3-3-3-3-3-3-3]
E/------------------------------------------------------------]


    "I'M NOT   FOOLIN'....."
G/------------------------------------------------------------]
D/------------------------------------------------------------]
A/-5-3-5-----------------1-----5-3-5--------------------------]
E/----------------1---------------------------1------3--------]
                                                                 
G/------------------------------------------------------------]
D/------------------------------------------------------------]  
A/-5-3-5-----------------1-----5-3-5--------------------------]  
E/----------------1---------------------------1------3--------]
                                                             
G/------------------------------------------------------------]
D/------------------------------------------------------------]
A/-5----------------------------0*----------------------------]
E/------------------------------------------------------------]

This is correct and sound really cool DEF LEPPDR RULZZZZ!