Def Leppard - Dont Shoot Shotgun Chords & Tabs

 

Dont Shoot Shotgun Chords & Tabs

Def Leppard Chords & Tabs

Version: 1 Type: Tab 0 ratings
1 star 2 stars 3 stars 4 stars 5 stars
comments

Dont Shoot Shotgun Tab

   
-------------------------------------------------------------------------------
			    Don't Shoot Shotgun - Def Leppard
-------------------------------------------------------------------------------

Tuning: Standard

INTRO
e|---------------------------------------------------------------------------|
B|---------------------------------------------------------------------------|
G|---4-4---2-2---------------------------------------------------------------|
D|---4-4---2-2---2-2---------------------------------------------------------|
A|---2-2---0-0---2-2---------------------------------------------------------|
E|---------------0-0---------------------------------------------------------|

VERSE
e|---------------------------------------------------------------------------|
B|---------------------------------------------------------------------------|
G|--4-4--2~~-----2~~----------------4-4--2~~---------------------------------|
D|--4-4--2~~-2---2~~--2-2-----------4-4--2~~--2-2----------------------------|
A|--2-2--0~~-2---0~~--2-2-----------2-2--0~~--2-2----------------------------|
E|-----------0--------0-0---------------------0-0----------------------------|

VERSE 2
This verse is the same chords as the 1st; however, instead of rapid change
between chords...just play the chords several more times. If you listen to the
song you will see what I mean. The change between each chord is a little longer.
[ Tab from: http://www.guitartabs.cc/tabs/d/def_leppard/dont_shoot_shotgun_tab.html ]
e|---------------------------------------------------------------------------|
B|---------------------------------------------------------------------------|
G|--4-4---4-4---2~~--4-4----------4-4--4-4-----------------------------------|
D|--4-4---4-4---2~~--4-4----------4-4--4-4--2-2------------------------------|
A|--2-2---2-2---0~~--2-2----------2-2--2-2--2-2------------------------------|
E|------------------------------------------0-0------------------------------|

PRE-CHORUS: Run for cover part
e|---------------------------------------------------------------------------|
B|---6-6--5-5--6-6--5--6--5--------------------------------------------------|
G|---5-5--5-5--5-5--5--5--5--------------------------------------------------|
D|---7-7--5-5--7-7--5--7--5--------------------------------------------------|
A|---------------------------------------------------------------------------|
E|---------------------------------------------------------------------------|

She's so dangerous part
e|---------------------------------------------------------------------------|
B|---------------------------------------------------------------------------|
G|------2-------2------------------------------------------------------------|
D|------2-------2------------------------------------------------------------|
A|------0-------0------------------------------------------------------------|
E|--3~~------3~~-------------------------------------------------------------|
    1/4 bend on 3's

CHORUS
e|---------------------------------------------------------------------------|
B|---------------------------------------------------------------------------|
G|---4--4-----2--------------------------------------------------------------|
D|---4--4--2--2--------------------------------------------------------------|
A|---2--2--2--0--------------------------------------------------------------|
E|---------0-----------------------------------------------------------------|

| /  slide up
| \  slide down
| h  hammer-on
| p  pull-off
| ~  vibrato
| +  harmonic
| x  Mute note
===============================================================================
Comments