Def Leppard - Die Hard The Hunter Chords & Tabs

 

Die Hard The Hunter Chords & Tabs

Def Leppard Chords & Tabs

Version: 2 Type: Tab 0 ratings
1 star 2 stars 3 stars 4 stars 5 stars
comments

Die Hard The Hunter Tab

|------------------------|------------------------|------------------------|
|-------------0----------|-------------0----------|-------------0----------|
|-------0--------0-----0-|-------0--------0-----0-|-------0--------0-----0-|
|----4-----4--------4----|----4-----4--------4----|----4-----4--------4----|
|-7----------------------|-7----------------------|-5----------------------|
|------------------------|------------------------|------------------------|

   Let's welcome home         the soldier boy              Far away
   No angel of mercy       Just a need to destroy         Fire away

|------------------------|
|-------------0----------|
|-------0--------0-----0-|
|----4-----4--------4----|
|-5----------------------|
|------------------------|

        Far away
       Fire away
(repeat previous 4 bars 4X lyrics bigin on third time)
[ Tab from: http://www.guitartabs.cc/tabs/d/def_leppard/die_hard_the_hunter_tab_ver_2.html ]
|------------------------|------------------------|------------------------|
|-------------0----------|-------------0----------|-------------0----------|
|-------0--------0-----0-|-------0--------0-----0-|-------0--------0-----0-|
|----4-----4--------4----|----4-----4--------4----|----4-----4--------4----|
|-2----------------------|-2----------------------|-0----------------------|
|------------------------|------------------------|------------------------|

  Let's toast the hero     with blood in his eyes   The scars on his mind

|------------------------|------------------------|------------------------|
|-------------0----------|------------------------|------------------------|
|-------0--------0-----0-|------------------------|------------------------|
|----4-----4--------4----|----------4-------------|----------2-------------|
|-0----------------------|----------4-------------|----------2-------------|
|------------------------|----------2-------------|----------0-------------|

           Took so many      Lives.......            Die Hard the Hunter




This is my first song to ever tab out.  One of my favorite Def Leppard songs of all
time.  I'm pretty sure it is accurate, but if you have any corrections or additions,
they are welcome. Long live rock and roll!
Comments