Def Leppard - Die Hard The Hunter Chords & Tabs

 

Die Hard The Hunter Chords & Tabs

Def Leppard Chords & Tabs

Version: 1 Type: Tab 0 ratings
1 star 2 stars 3 stars 4 stars 5 stars
comments

Die Hard The Hunter Tab

 DEF LEPPARD
       Die Hard the hunter intro
       ALBUM: Pyromania
       Tabbed by: WCS
  
|--------------------------|--------------------------|--------------------------|-------------------------|
|--------------0-----------|--------------0-----------|--------------------------|-------------------------|
|--------0--------0-----0--|--------0--------0-----0--|--------------0-----------|--------------0----------|
|-----2-----2--------4-----|-----2-----2--------4-----|--------0--------0-----0--|--------0--------0-----0-|
|--2-----------------------|--2-----------------------|--0--4-----4--------4-----|--0--4-----4--------4----|
|--------------------------|--------------------------|--------------------------|-------------------------|

[ Tab from: http://www.guitartabs.cc/tabs/d/def_leppard/die_hard_the_hunter_tab.html ]
|-------------------------|--------------------------|--------------------------|--------------------------|
|-------------0-----------|--------------0-----------|--------------------------|--------------------------|
|-------0--------0-----0--|--------0--------0-----0--|--------------0-----------|--------------0-----------|
|----2-----2--------4-----|-----2-----2--------4-----|--------0--------0-----0--|--------0--------0-----0--|
|-2-----------------------|--2-----------------------|--0--4-----4--------4-----|--0--4-----4--------4-----|
|-------------------------|--------------------------|--------------------------|--------------------------|




   This is only part of the beginning of the song.
   If anybody knows the rest, please tab it. Thanks!!!
Comments