Def Leppard - Bringin On The Heartbreak Chords & Tabs

 

Bringin On The Heartbreak Chords & Tabs

Def Leppard Chords & Tabs

Version: 3 Type: Tab 0 ratings
1 star 2 stars 3 stars 4 stars 5 stars
comments

Bringin On The Heartbreak Tab

Hi there, great DL song, one of my favourites

This is two guitars arranged for one
Intro:
E|--------------|-----------------|-----------------|----------------------|
B|------10-12---|----------10-12--|----------10-12--|-----------13---------|
G|--9-----------|--9---9----------|--10--9----------|--12b-12b--12--12r-9--|
D|--10--12-14---|--10--10--12-14--|--12--10--12-14--|--12b-12b------12r-10-|
A|--------------|-----------------|-----------------|----------------------|
E|--------------|-----------------|-----------------|----------------------|
                                                           
------------------------------|------|
------------------------------|------|
--12---10---9-----7--9h-7-----|------|
--12---12---10----9--10-9-9---|--10--|
--------------------------10--|--12--|
------------------------------|------|

Or If you want it easier... here is the 2 guitar intro:
(this way its more complicated 'cause you and your 2nd guitarist need a lot of
coordination to play it at the same time)


Lead Guitar

E||-------------|----------------|-----------------|----------------------|-----------------------|------|
B||-----10-12---|--------10-12---|---------10-12/--|-----------13---------|--12--10--9--7--9h7----|------|
G||--9----------|--9--9----------|--10--9----------|--12b-12b------12r-9--|--------------------9--|--10--|
D||-------------|----------------|-----------------|----------------------|-----------------------|------|
A||-------------|----------------|-----------------|----------------------|-----------------------|------|
E||-------------|----------------|-----------------|----------------------|-----------------------|------|

Rhythm guitar

E||-----------|-------------|--------------|------------------|-----------------------|-----|
B||-------5---|----------5--|----------5---|---------8--------|--3h5--3---------------|-----|
G||--5--7-----|--5--5--7----|-----5--7-----|--7b-7b-----7r-5--|----------5--4--5h4----|-----|
D||-----------|-------------|--7-----------|------------------|--------------------5--|--7--|
A||-----------|-------------|--------------|------------------|-----------------------|-----|
E||-----------|-------------|--------------|------------------|-----------------------|-----|

Then the fill that goes in the pre-verse and all the verses...

Fill 1
---------------------------|--------------------------|--------------0-----------|--1------------------0-----|
---------------------0-----|--------1--------0--------|--------3--------3--------|-----3-----3------3-----3--|
--------2-0-------5-----5--|--------------------------|-----2-----2--------2-----|--------3-----3/4----------|
-----2------2/-3-----------|-----2-----2--------2-----|-----------------------0--|---------------------------|
--0------------0-----------|--0-----------------------|--------------------------|---------------------------|
---------------------------|--------------3--------3/-|--1-----------------------|---------------------------|

Fill 2
---------------------------|---------------------------|
---------------------------|---------------------------|
--------5/7/5--------------|--------7/9/7--------4-----|
-----5--5/7/5--------5-----|-----7--7/9/7-----4-----4--|
--3---------------5-----5--|--5------------2-----------|
---------------3-----------|--x------------------------|

Fill 3

----------------------------|
----------------------------|
--5-------------------------|
--5-------------------------|
--3----5--5-5-5--5-5-5--5-5-|
-------3--3-3-3--3-3-3--3-3-|
       |--------P.M.--------|   

Fill 4
--------------------|-------------------------------|
--------------------|-------------------------------|
--------------------|-------------------------------|
--------------------|-------------------------------|
--------------------|-------------------------------|
--5--------1--------|--3--3-3-3--3-3-3-3-3-3-3-3-3--|

Fill 4.1

--------------------|
--------------------|
--------------------|
--------------------|
--------------------|
--5--------1--------|

Fill 4.2

--------------------|-----|
--------------------|-----|
--------------------|-----|
--------------------|--5--|
--------------------|--5--|
--5--------1--------|--3--|

Guitar solo 1:
[ Tab from: http://www.guitartabs.cc/tabs/d/def_leppard/bringin_on_the_heartbreak_tab_ver_3.html ]
|------|--5---------5----|-------5-------|----------------------|--------------------|
|------|--8b---8/---8b---|--8/---8r------|----------------------|--------------------|
|--2r--|-----------------|-----------7b--|--7~--7/--------------|-------------5--4~--|
|------|-----------------|---------------|----------------------|------3--5/7--------|
|------|-----------------|---------------|-------------------3--|--3/5---------------|
|------|-----------------|---------------|-----------3-4-4/5----|--------------------|

Guitar solo 2:

|--5--5-------5--5-------|-----8h7-5-------------------|-------------------------------|
|--8b-8b---8/-8b-8b---8/-|--10-------8-5---------------|-------------------------------|
|------------------------|---------------7-5-4~--------|---------------5-7r-5----------|
|------------------------|-----------------------------|-----------5/7--------7--7--7/-|
|------------------------|-------------------------3b--|-----3-5/7---------------------|
|------------------------|-----------------------------|--5----------------------------|
                                
                                         
----------------8--8--8-8---10-----15b--|--15r---12h15h12----12-----------------------|
--10--10--10-10-------------------------|-----------------15----15-13-12--------------|
--------------------------9----9~-------|--------------------------------14---------9-|
----------------------------------------|-------------------------------------10/12---|
----------------------------------------|---------------------------------------------|
----------------------------------------|---------------------------------------------|

                                               
----------------------20--19--17--------------|------------|
------10--13--12~-12/-------------17----------|------------|
--10----------------------------------17--16--|------------|
----------------------------------------------|------------|
----------------------------------------------|--17---17/--|
----------------------------------------------|------------|

final solo: 

|------15----15----15----|--15----15----15------------------|
|------15b---15b---15b---|--15b---15b---15r13------------13-|
|------------------------|--------------------14--14--14----|
|------------------------|----------------------------------|
|------------------------|----------------------------------|
|------------------------|----------------------------------|
                                
--------------------------------|--15--------15b-15-15b--15-15b--17-17-|
--------13------13------13--15b-|-----15r-13---------------------------|
----14------14------14----------|--------------------------------------|
--------------------------------|--------------------------------------|
--------------------------------|--------------------------------------|
--------------------------------|--------------------------------------|
                                     
--20b-20-20b--20-20b--20-20b--20-20b|----20--19-17--------------|-------------------------|
------------------------------------|--------------20b----------|-------------------------|
------------------------------------|---------------------------|-------4--5-----5--4-----|
------------------------------------|----------------------x----|--7----------3--------5--|
------------------------------------|----------------------x----|-------------------------|
------------------------------------|---------------------------|-------------------------|

Song Order:

Intro - 1x
Fill 1 - 4x
Fill 2 - 1x
Fill 3 - 4x
Fill 4 - 3x
Fill 4.1 - 1x
Guitar Solo 1 - 1x
Fill 1 - 2x
Fill 2 - 1x
Fill 3 - 4x
Fill 4 - 3x
Fill 4.2 - 1x
Guitar Solo 2 - 1x
Fill 3 - 4x
Fill 4 - 3x
Final Solo - 1x
(Repeat Fill 4 3x while playing Final solo)

Song Lyrics:

Gypsy, sittin' lookin' pretty 
The broken rose with laughin' eyes 
You're a mystery, always runnin' wild 
Like a child without a home 
You're always searching, searching for a feeling 
That it's easy come and easy go 

Oh I'm sorry but it's true 
You're bringin' on the heartache 
Takin' all the best of me 
Oh can't you see? 
You got the best of me 
Whoah can't you see? 

You're bringin' on the heartbreak 
Bringin' on the heartache 
You're bringin' on the heartbreak 
Bringin' on the heartache 
Can't you see? 

Oh whoah 
You're such a secret, misty eyed and shady 
Lady how you hold the key 
Oh you're like a candle, your flame slowly fadin' 
Burnin' out and burnin' me 
Can't you see? 
Just try and say to you 

You're bringin' on the heartache 
Takin' all the best of me 
Oh can't you see? 
You got the best of me 
Whoah can't you see? 

You're bringin' on the heartbreak 
Bringin' on the heartache 
You're bringin' on the heartbreak 
Bringin' on the heartache 

Can't you see? 
Can't you see? 
No no no 
You got the best of me 
Oh can't you see? 
You got the best of me 
Whoah can't you see? 

You're bringin' on the heartbreak 
Bringin' on the heartache 
You're bringin' on the heartbreak 
Bringin' on the heartache 
You're bringin' on the heartbreak 
Bringin' on the heartache 
You're bringin' on the heartbreak


-slash_2k4@hotmail.com
Comments