Def Leppard - Bringin On The Heartbreak Chords & Tabs

 

Bringin On The Heartbreak Chords & Tabs

Def Leppard Chords & Tabs

Version: 2 Type: Tab 0 ratings
1 star 2 stars 3 stars 4 stars 5 stars
comments

Bringin On The Heartbreak Tab

#----------------------------------PLEASE NOTE---------------------------------#
#This file is the author's own work and represents his   interpretation of the #
#song. You may only use this file for private study, scholarship, or research. #
#------------------------------------------------------------------------------#
[ Tab from: http://www.guitartabs.cc/tabs/d/def_leppard/bringin_on_the_heartbreak_tab_ver_2.html ]
   --------------------------|-------------------0-|
   --------------------------|-------------3-------|
   --------5-----------4-----|----------2-----2----|
   -----2-----2-----2-----2--|---------------------|
   --0-----------------------|---------------------|
   --------------3-----------|--3--3\1-------------|

   -----------|--1---------------------0-----------|
   --3--------|-----3-----3---------3-----3--------|
   -----2-----|--------3-----3-/-4-----------------|
   --------0--|------------------------------------|
   -----------|------------------------------------|
   -----------|------------------------------------|


Bryan Patrick Wallis
Comments