Def Leppard - Bringin On The Heartbreak Chords & Tabs

 

Bringin On The Heartbreak Chords & Tabs

Def Leppard Chords & Tabs

Version: 2 Type: Bass Tab 0 ratings
1 star 2 stars 3 stars 4 stars 5 stars
comments

Bringin On The Heartbreak Bass Tab

DEF LEPPARD
BRINGIN' ON THE HEARTBREAK
tabbed by saturns_bassman

intro:                 1-1 not 11 (even though theres no space)
g|------------------------------------------------------------------------||
d|------------------------------------------------------------------------||
a|---------------------3--3-33--5-567------------------------------18-----||
e|-5--0-55---1--1-11--------------------5-3--3-1--0-11---12\1--1/------16\||

verse:
g|---------------------------------||
d|---------------------------------||
a|-----------------------2--6/7----||
e|-5--5--5-3--3-1--0-11----------0-||

pre-chorus:(im sorry but its true...)
g|----------------||
d|----------------|| part I
a|-3-------5--2---||
e|-----3----------||
[ Tab from: http://www.guitartabs.cc/tabs/d/def_leppard/bringin_on_the_heartbreak_btab_ver_2.html ]
partII: (takin on the best of me...)
g|--------------||
d|--------------||
a|-33-----------||
e|----33333333--||

chorus:
g|----------------------------||
d|----------------------------||
a|----------------------------||
e|--5---1---3-33333333333333--||

verse
pre-chorus(parts I and II)
chorus

then for solo:
g|----------------------------------------------------------------||
d|----------------------------------------------------------------||
a|---------------------3--3------------------3--3-------55--------||
e|-5--511--13--300--0--------55--53--311--1-------33--3-----00--0-||

pre-chorus(partI only)
chorus:
g|----------------------------||
d|----------------------------||
a|----------------------------||
e|--5---1---3-33333333333333--||

listen for timeing its kinda tricky with all the basslines and whatnot so just listen
to when to play all the parts.Enjoy!
Comments