Def Leppard - All I Want Is Everything Chords & Tabs

 

Def Leppard Chords & Tabs

Version: 2 Type: Tab 0 ratings
1 star 2 stars 3 stars 4 stars 5 stars
comments

All I Want Is Everything Tab

   
   Def leppard – all I want is everything solo
               From “Slang”

By Sanjeev George and Thomas George
Mail at SanjeevGeorge123@yahoo.co.in

| b  bend
| r  release bend
| /  slide up
| \  slide down
| h  hammer-on
| p  pull-off
| ~  hold note and let ring
| v  vibrato


Tune down 1/2 step,or play the notes in this tab 1 fret behind,i.e, for instance ,the 
part will be like

e|-----------------------------------------------------------|
B|-----------------------------------------------------------|
G|----2/4-------------------2/4------------------------------|
D|--------7-4h5p4---4v------------7-4h5p4-2------------------|
A|----------------7-------------------------2v----2b4r2------|
E|-----------------------------------------------------------|

Eb Ab Db Gb Bb Eb
[ Tab from: http://www.guitartabs.cc/tabs/d/def_leppard/all_i_want_is_everything_tab_ver_2.html ]
eb|-------------------------------------------------------------------------|
Bb|-------------------------------------------------------------------------|
Gb|----3/5--------------------3/5-------------------------------------------|
Db|---------8—5h6p5----5v----------8—5h6p5-3--------------------|
Ab|-----------------8------------------------3v----3b5r3--------------------|
Eb|-------------------------------------------------------------------------|

eb|-----------------------6b8---6v------------------------------------|
Bb|-------------------6-4------------8-h9p8----8v-----8-h9p8----------|
Gb|-------------3h5-------------------------10---------------10-------|
Db|-------3h5-------5-------------------------------------------10v---|
Ab|---3/5-----6-------------------------------------------------------|
Eb|-------------------------------------------------------------------|


eb|---------------x-11—11/13\11-------------------------|
Bb|---------------x-11-11/13\11---13\11—-13~------------|
Gb|-------------------------------12\10—-12~------------|
Db|---10/12---------------------------------------------------|
Ab|---------13v-----------------------------------------------|
Eb|-----------------------------------------------------------|
Comments