Deep Purple - Stormbringer Chords & Tabs

 

Stormbringer Chords & Tabs

Deep Purple Chords & Tabs

Version: 1 Type: Tab 0 ratings
1 star 2 stars 3 stars 4 stars 5 stars
comments

Stormbringer Tab

   
Gtr I (E A D G B E)

  Moderately Slow  Q=90
 4/4
  Gtr I
              ~                ~                  ~
  E E E E E E E Q    E E E E E E H      E E E E E E     E
|-7-7-7-7-7-7-7----|------------------|-7-7-7-7-7-7-----7---|
|-8-8-8-8-8-8-8----|-7-7-7-7-7-7------|-8-8-8-8-8-8-----8---|
|-7-7-7-7-7-7-7----|-7-7-7-7-7-7------|-7-7-7-7-7-7-----7---|
|------------------|-7-7-7-7-7-7------|---------------------|
|------------------|------------------|---------------------|
|------------------|------------------|---------------------|


  E E E E E E E  S S  S S     S S S S S S S S S S S S S S S S
|-------------------------||-------------------------------------|
|-------------------------||o------------------------------------|
|-7-7-7-7-7-7-7----6------||-------------------------------------|
|-7-7-7-7-7-7-7----7----5-||--5----------------------------------|
|------------------7----5-||o---7-7-7-5-7-7---5-7-7---5-7-7------|
|------------------5----3-||----------------0-------0-------0----|


  S S S S S S S S S S S S S S     S    S    S   S
|------------------------------||------3-------------|
|-----------------------------o||------3----1---4----|
|------------------------------||------4--------4----|
|-5----------------------------||-2----5----2---4----|
|---7-7-7-5-7-7---5-----------o||-2----5----3---2----|
|---------------0---7-6-5-5-3--||-0----3-------------|


  S   S   S    S
|-----3------------|
|-----3---1----4---|
|-----4--------4---|
|-2---5---2----4---|
|-2---5---3----2---|
|-0---3------------|


                                             ~~
   S      S  S      S  S      S  S     S  S  S  S  S  S  S  S  S  S
|-------------------------------------------------------------12-15b17-|
|--------15--------15--------15-------------------------12-15----------|
|-14b16-----14b16-----14b16-----14b16r14-12-14-12-14-12----------------|
|----------------------------------------------------------------------|
|----------------------------------------------------------------------|
|----------------------------------------------------------------------|


    ~       ~                               ~
  S S    S  S   S S  S  S S S S S S  S  S S S      S
|------------------------------------------------------|
|---------------4s5s=4---------------------------------|
|-2s4----4--4-----------5s4s5s4s5-4s=5s=4-4s9------9---|
|------------------------------------------------------|
|------------------------------------------------------|
|------------------------------------------------------|

[ Tab from: http://www.guitartabs.cc/tabs/d/deep_purple/stormbringer_tab.html ]
  S S S S S S S S  S S S   S   S  S  S  S S S S  S S S S S   S   S   S
|----------------------------------------------------------/12--11--12---|
|-8s7s8s7s8s7s8s7--8s7-7s=12s=11s12s11s12s8s7s8--7s8s7s8s7----------12---|
|------------------------------------------------------------------------|
|------------------------------------------------------------------------|
|------------------------------------------------------------------------|
|------------------------------------------------------------------------|


                              ~                                  ~~
   S  S  S  S  S  S  S  S  S  S      S  S S   S   S   S   S   S  S    S
|----------------------------------/12s=7-7---8---9--10--11--11s12---14-|
|-11s12s11--------------------------------------------------------------|
|----------12s11s12s11s12--8s=9-----------------------------------------|
|-----------------------------------------------------------------------|
|-----------------------------------------------------------------------|
|-----------------------------------------------------------------------|


             ~~~~~~~~~
   S    S    S      S      S     S    S   S    S
|-15---17---15-----11-----12----10---10s==8----7----|
|---------------------------------------------------|
|---------------------------------------------------|
|---------------------------------------------------|
|---------------------------------------------------|
|---------------------------------------------------|


Duration Legend
---------------
W - whole; H - half; Q - quarter; E - 8th; S - 16th; T - 32nd; X - 64th; a - acciaccatura
+ - note tied to previous; . - note dotted; .. - note double dotted
Uncapitalized letters represent notes that are staccato (1/2 duration)
Irregular groupings are notated above the duration line
Duration letters will always appear directly above the note/fret number it represents the
duration for.  Duration letters with no fret number below them represent rests.  Multi-
bar rests are notated in the form Wxn, where n is the number of bars to rest for.  Low
melody durations appear below the staff

Tablature Legend
----------------
 h   - hammer-on
 p   - pull-off
 b   - bend
 pb  - pre-bend
 r   - bend release (if no number after the r, then release immediately)
 /\  - slide into or out of (from/to "nowhere")
 s   - legato slide
 S   - shift slide
  - natural harmonic
[n]  - artificial harmonic
n(n) - tapped harmonic
 ~   - vibrato
 tr  - trill
 T   - tap
 TP  - trem. picking
 PM  - palm muting
\n/  - tremolo bar dip; n = amount to dip
 \n  - tremolo bar down
 n/  - tremolo bar up
/n\  - tremolo bar inverted dip
 =   - hold bend; also acts as connecting device for hammers/pulls
 <>  - volume swell (louder/softer)
 x   - on rhythm slash represents muted slash
 o   - on rhythm slash represents single note slash

Misc Legend
-----------
 |  - bar
||  - double bar
||o - repeat start
o|| - repeat end
*|  - double bar (ending)
 :  - bar (freetime)
 $  - Segno
 &  - Coda
Tempo markers -  = BPM(8/16=s8/s16), where s8 = swing 8ths, s16 = swing 16ths


***************************************************************************************
* Generated using Power Tab Editor by Brad Larsen - http://powertab.guitarnetwork.org *
***************************************************************************************

--------------------------------------------------------------------------------
back to top ^
COMMENTS:

:: add your comment ::

Classic Rock May 19, 2003, 18:32  

The intro and the the main 
riff is done and solo.
Enjoy
Comments