Deep Purple - Space Truckin Chords & Tabs

 

Space Truckin Chords & Tabs

Deep Purple Chords & Tabs

Version: 3 Type: Bass Tab

Space Truckin Bass Tab

This is a much more cleaned up, and easier to read version of the song.

Artist: Deep Purple
Song:   Space Truckiní
Album:  Machine Head
Year:   1972

Intro (x4)
||---------------------------|-----------------|-----------------|
||*--------------------------|-----------------|-----------------|
||*-----------------5-----3--|-----------------|-----------3--5--|
||------3--5-----------------|-----5-----------|-----------------|

|------------------||
|-----------------*||
|-----------------*||
|--3--5------------||

Verse (x2)
||---------------------------|---------------------------|
||---------------------------|---------------------------|
||---------------------------|---------------------------|
||------5-----5-----5-----5--|------5-----5-----5-----5--|

|--------------------------|-----------------------------|
|--------------------------|-----------------------------|
|-----3-----3-----5-----5--|-----------------------------|
|--------------------------|------5-----5-----5-----5----|
[ Tab from: http://www.guitartabs.cc/tabs/d/deep_purple/space_truckin_btab_ver_3.html ]
Pre-Chorus                           (x2)
||--------------|---------------------|--------------|--9--9--9--9--|--9-|
||-----4--5--7--|------7--5-----------|-----4--5--7--|--------------|----|
||--5-----------|------------7--5-----|--5-----------|--------------|----|
||--------------|---5--------------8--|--------------|--------------|----|

Chorus				    (x4)				    (x3)
G---||-------------------------||--||-------------------------||------|
D---||*-----------------------*||--||*-----------------------*||------|
A---||*-----7--6--5-----------*||--||*-----2--1--0-----------*||------|
E---||---5-----------8--7--6---||--||---0-----------3--2--1---||------|

G---------------||
D---------------||
A---------------||
E---0--1--2--3--||


Bridge                        x3
||----------------------------||----------------------------|
||*--------------------------*||----------------------------|
||*--7--7--7--7--7--7--7--7--*||--7--5--------------5--7----|
||----------------------------||--------7--6--5--8----------|


Order
Intro
Verse
Pre-Chorus
Chorus
Verse
Pre-Chorus
Chorus
Intro
Bridge
Chorus
First 2 Notes intro
Chorus  x3