Deep Purple - Somtimes I Feel Like Screaming Chords & Tabs

 

Somtimes I Feel Like Screaming Chords & Tabs

Deep Purple Chords & Tabs

Version: 1 Type: Tab 2 ratings
1 star 2 stars 3 stars 4 stars 5 stars
comments

Somtimes I Feel Like Screaming Tab

   
Sometimes I Feel Like Screaming
(Gillan/Glover/Morse/Lord/Paice)
From "Purpendicular", 1996
Intro: viola
e|--------------------------------------------------------3--|
B|--------5--6~------------------------------------------3---|
G|------------------------/9--5-------------------------0----|
D|-----7----------5h7p5----------5--3---/7--3---3p2p0--------|
A|--5--------------------------------------------------------|
E|-----------------------------------------------------------|

e|--------------------------------------------------------------|
B|--------5--6~----------------------------------------------3--|
G|---------------------------/9--5-----------------------/7-----|Viola 1 
D|-----7------------5h7p5-------------/7--3----/7--3---5--------|Steve Morse
A|--5------------8---------7--------7--------5------------------|
E|--------------------------------------------------------------|
| |
e|--------------------------------------------------------------|
B|--------------------------------------------------------------|
G|--------7----------------------------2-------3------5---------|Viola 2
D|-----7-----------8-----------10----2-------3------5------5----|Roger Glover
A|--5------------8----------10-----0-------1------3--------5----|(ao vivo)
E|-------------6----------8--------------------------------3----|

Canto 1: 4x
e|--5---5-5--5---5-5-3-----1---0--0---|
B|--3---3-3--3---3-3-3-----3---2--2---|
G|--2---2-2--3---3-3-3-----2---3--3---|Viola 1 e 2
D|--------------------------------0---|
A|------------------------------------|
E|------------------------------------|

Riff 1:
e|----------------------------------------------------------------3--|
B|--------5--6~---------------------------------------------------3--|
G|---------------------------/9--5--------------------------------0--|Viola 1 
D|-----7------------5h7p5-------------5h7p5--3----/7--5--0-3p2p0-----|Steve Morse
A|--5------------8---------7--------7-----------5--------------------|
E|-------------------------------------------------------------------|
| |
e|-------------------------------------------------------------------|
B|-------------------------------------------------------------------|
G|--------7----------------------------2----------3--------5---------|Viola 2
D|-----7-----------8-----------10----2----------3--------5--------5--|Roger Glover
A|--5------------8----------10-----0----------1--------3----------5--|(ao vivo)
E|-------------6----------8---------------------------------------3--|

Canto 2: 4x
e|--5---5-5--5---5-5-3-----1---0--0---|
B|--3---3-3--3---3-3-3-----3---2--2---|
G|--2---2-2--3---3-3-3-----2---3--3---|Guitar
D|--------------------------------0---|
A|------------------------------------|
E|------------------------------------|

Riff 2:
A.H.----------------------------------------------------------|
e|-----------------------------------------------------------------|
B|------5--6~------------------------------------------------------|
G|----------------------7b(9)--5-----------------------------------|
D|---7----------7--5----------------5--3---5b(7)r(5)---------------|
A|----------------------------------------------------7b(8)b(7)--5-|
E|-----------------------------------------------------------------|

A.H.---------------------------------------------------------------|
e|----------------------------------------------------------------------/13-|
B|---------------5--6~-----------------------------------------------3------|
G|----5--7--7-----------------------7b(9)--5---------------------/7---------|
D|-5----------7-----------/7--5-----------------/7--3----/7--5-5------------|
A|----------------------8--------7------------7--------5--------------------|
E|--------------------------------------------------------------------------|

Canto 3: 2x
e|------------------------------------------------------------------------|
B|------------------------------------------------------------------------|
G|----------------------------------5~~--------------6~~-------------8~~--|
D|--------------3~~-3---------------5~~--------------6~~-------------8~~--|
A|--------------------3-------------3~~--------------4~~-------------6~~--|
E|--1--1-1-1-1----------1--1-1-1-1--------4--4-4-4-4------4--4-4-4-4------|

Canto 4: 4x
e|--5---5-5--5---5-5-3-----1---0--0---|
B|--3---3-3--3---3-3-3-----3---2--2---|
G|--2---2-2--3---3-3-3-----2---3--3---|
D|--------------------------------0---|
A|------------------------------------|
E|------------------------------------|

Piano solo: clean guitar
e|--1--1--1-1-------------------------------------------------------3-3--3--|
B|--3--3--3-3---3--3-3--3---1-1-1--1-1-1--1--3--3-3--3---1-1--1-1---3-3--3--|
G|--2--2--2-2---3--3-3--3---0-0-0--2-2-2--2--3--3-3--3---0-0--0-0---0-0--0--|
D|--0--0--0-0---3--3-3--3---2-2-2--2-2-2--2--3--3-3--3---2-2--2-2---0-0--0--|
A|--------------1--1-1--1---3-3-3------------1--1-1--1---3-3--3-3---2-2--2--|
E|------------------------------------------------------------------3-3--3--|

Canto 5: 4x
e|--5---5-5--5---5-5-3-----1---0--0---|
B|--3---3-3--3---3-3-3-----3---2--2---|
G|--2---2-2--3---3-3-3-----2---3--3---|Guitar
D|--------------------------------0---|
A|------------------------------------|
E|------------------------------------|

Riff 2:
A.H.--------------------------------------------------------|
e|---------------------------------------------------------------|
B|------5--6~----------------------------------------------------|
G|----------------------7b(9)--5---------------------------------|
D|---7----------7--5----------------5--3------7--5---------------|
A|-----------------------------------------5--------7b(8)b(7)--5-|
E|---------------------------------------------------------------|

A.H.---------------------------------------------------------------------------|
e|------------------------------------------------------------------------------------|
B|-------------------5--6~--------------------------------------------5b(6)r(5)--5----|
G|---5-4---7-4--------------------------/9--5-------------5b(7)--5--------------------|
D|-5-----5--------7-----------/7--5--------------/7--3-------------5----------------5-|
A|-------------5------------8--------7---------7--------5-----------------------------|
E|------------------------------------------------------------------------------------|

Canto 6: 2x
e|------------------------------------------------------------------------|
B|------------------------------------------------------------------------|
G|----------------------------------5~~--------------6~~-------------8~~--|
D|--------------3~~-3---------------5~~--------------6~~-------------8~~--|
A|--------------------3-------------3~~--------------4~~-------------6~~--|
E|--1--1-1-1-1----------1--1-1-1-1--------4--4-4-4-4------4--4-4-4-4------|

Solo:
e|-----------------------------------------------------------|
B|-----------------------------------------------------------|
G|--------------8-10b(12)--10b(12)--10~~----7--9--9b(10)~~---|
D|------8--/10-----------------------------------------------|
A|--/10------------------------------------------------------|
E|-----------------------------------------------------------|

e|-------------------------------------------------------------------------|
B|--------------------------------------------------13b(15)---------10-----|
G|--5p2--5b(7)~~~~r(5)p3p2------------2-5-5b(7)~~-------------12-12----12--|
D|------------------------5p3----------------------------------------------|
A|---------------------------5p3-5~~---------------------------------------|
E|-------------------------------------------------------------------------|

e|--10-------------------------------------------|
B|---8-------------------------------------------|
G|----9b(10)~~r(9)--7--5--/5--2--0---------0-----|
D|----------------------------------3b(4)--------|
A|-----------------------------------------------|
E|-----------------------------------------------|
[ Tab from: http://www.guitartabs.cc/tabs/d/deep_purple/somtimes_i_feel_like_screaming_tab.html ]
e|-------------------------------10-12-13-15-15b(17)--15b(17)~~r(15)-13-15p13---------|
B|----------------------10-11-13----------------------------------------------15b(17)-|
G|----------------10-12---------------------------------------------------------------|
D|-------10-12-14---------------------------------------------------------------------|
A|-12-13------------------------------------------------------------------------------|
E|------------------------------------------------------------------------------------|

e|-12b(13)--10-----------------------------------|
B|-------------13--------------------------------|
G|----------------12-9b(10)r(9)------------------|
D|-------------------------------10-12~~---------|
A|-----------------------------------------------|
E|-----------------------------------------------|

e|----------------------------------15-17-18-18b(20)-20b(22)~~r(20)-|
B|-------------------------15-17-18---------------------------------|
G|----------------14-15-17------------------------------------------|
D|----------15-17---------------------------------------------------|
A|-15-17-19---------------------------------------------------------|
E|------------------------------------------------------------------|
H.A.-------------------|
e|-17-------------------12b(13)r(12)--10---------------12b(13)r(12)---------------|
B|----20b(22)-18-20-------------------------------------------------13------------|
G|-----------------------------------------9b(10)r(9)------------------9b(10)r(9)-|
D|--------------------------------------------------------------------------------|
A|--------------------------------------------------------------------------------|
E|--------------------------------------------------------------------------------|

e|-----------------------|
B|-----------------------|
G|-7---------------------|
D|-----9b(10)r(9)-7-5p0--|
A|-----------------------|
E|-----------------------|

Riff 2:
A.H.-----------------------------------------------------|
e|------------------------------------------------------------|
B|------5--6~-------------------------------------------------|
G|---------------------/7--5----------------------------------|
D|---7----------7--5----------5--3----5b(7)r(5)---------------|
A|-----------------------------------------------7b(8)b(7)--5-|
E|------------------------------------------------------------|

A.H.--------------------------------------------------------------------|
e|-------12~~~b(13)---------10b(12)--8-------------------------10b(12)r(10)--|
B|----10-------------10--8---------------------------------------------------|
G|--------------------------------------12--10---12b(14)r(12)----------------|
D|-12------------------------------------------------------------------------|
A|---------------------------------------------------------------------------|
E|---------------------------------------------------------------------------|

Canto 7: 4x
e|------------------------------------------------------------------------|
B|------------------------------------------------------------------------|
G|--------------3~~-----------------5~~--------------6~~-------------8~~--|
D|--------------3~~-3---------------5~~--------------6~~-------------8~~--|
A|--------------1~~---3-------------3~~--------------4~~-------------6~~--|
E|--1--1-1-1-1----------1--1-1-1-1--------4--4-4-4-4------4--4-4-4-4------|

Riff Final: H.A.----------------|
e|------------------------------------------------------------------|
B|----------9--10---------------------------------------------------|
G|------------------------11b(13)--9--------------------------------|
D|-----11----------11--9--------------9--7---9b(11)r(9)--7----------|
A|--9-------------------------------------------------------9~~~~---|
E|------------------------------------------------------------------|
H.A.-------|
e|---------------------------------------------------------------------|
B|---------9--10----------------------------------------------9--------|
G|-----------------------11b(13)--9------------------11b(13)-----11~~--|
D|-----11---------11--9--------------9--7---9h11--9--------------------|
A|--9------------------------------------------------------------------|
E|---------------------------------------------------------------------|

e|--------------------------------------------------------------|
B|--------2--3--------------------------------------------------|
G|--------------------4b(6)--2----------------------------------|
D|-----4--------4--2------------2--0---2b(4)r(2)----------------|
A|--2---------------------------------------------4b(5)r(4)--2--|
E|--------------------------------------------------------------|

e|---------------------------------------------------------------------|
B|--------2--3---------------------------------------------------------|
G|-------------------------4b(6)--2-----------------------4b(5)~~---4--|
D|-----4----------4--2---------------2--0------2b(4)r(2)---------------|
A|--2-----------5-------4-------------------2--------------------------|
E|---------------------------------------------------------------------|

e|----------14-15------15-14---12h14-------------------12------------------|
B|------12---------12----------------15---12--15b(17)-----15---------------|
G|-----------------------------------------------------------14b(16)r(16)--|
D|--14---------------------------------------------------------------------|
A|-------------------------------------------------------------------------|
E|-------------------------------------------------------------------------|

e|--------------------------------------12-14-15b(16)--15p12--|
B|------------12-12-12---------12-13-15-----------------------|
G|-12-14--14----------------14--------------------------------|
D|----------------------14------------------------------------|
A|------------------------------------------------------------|
E|------------------------------------------------------------|
H.A.-------|
e|------------------12--14-------------------------------------------------|
B|------12--13---15--------------------------------------------------------|
G|--------------------------14--14b(16)r(14)---9--11--9--9b(11)---9p7---9--|
D|--14---------------------------------------------------------------------|
A|-------------------------------------------------------------------------|
E|-------------------------------------------------------------------------|
H.A. 
e|------------------------------------------------------------------------------|
B|----------12--13--------------------------------------------------------------|
G|--------------------------14b(16)--12-----------------------------------------|
D|------14----------14--12---------------12--10--12b(14)r(12)-------------------|
A|--12---------------------------------------------------------14b(16)r(14)--12-|
E|------------------------------------------------------------------------------|

e|-----------------------------------------|
B|----------------------------10-12-13-x--|
G|--------------------9-10-12--------------|
D|------------9-10-12----------------------|
A|----8-10-12------------------------------|
E|-12--------------------------------------|
H.A.-------|
e|-------------------------------------------------------------------------------|
B|----------12--13---------------------------------------------------------------|
G|--------------------------14b(16)--12------------------------------------------|
D|------14----------14--12---------------12--10--12b(14)r(12)---------------14~~-|
A|--12---------------------------------------------------------14b(16)r(14)-12~~-|
E|-------------------------------------------------------------------------------|

A.H.-----------------------------------------------------|
e|------------------------------------------------------------|
B|------5--6~-------------------------------------------------|
G|----------------------7b(9)--5------------------------------|
D|---7----------7--5----------------5--3---5b(7)r(5)----------|
A|----------------------------------------------------8p7p5~~-|
E|------------------------------------------------------------|

A.H.--------------------------------------------------------------------|
e|----------------------------------------------------------------------------|
B|--------5--6~--------------------------------------------------------3~~~~--|
G|---------------------------7b(9)--5---------------------------7b(9)---------|
D|-----7--------------7--5-----------------5---3-----5b(7)r(5)----------------|
A|--5--------------8--------------------7----------5--------------------------|
E|----------------------------------------------------------------------------|
Comments