Deep Purple - Sometimes I Feel Like Screaming Chords & Tabs

 

Sometimes I Feel Like Screaming Chords & Tabs

Deep Purple Chords & Tabs

Version: 2 Type: Tab 0 ratings
1 star 2 stars 3 stars 4 stars 5 stars
comments

Sometimes I Feel Like Screaming Tab

   
Deep Purple "Sometimes I Feel Like Screaming".
Tabbed by Andrew beat70boy@yahoo.de.
  

Sometimes I Feel Like Screaming
(Gillan/Glover/Morse/Lord/Paice)
>From "Purpendicular", 1996
INTRO:

Riff 1 (Mors plays it not so)

                                   Dm                                         Dm 
------------------------------------5------------------------------------------5
-------6~~--------------------------6------6~~---------------------------------6
-----7---------9-5~~----------------7-----7----------9-5~~--------------5-7~~--7
---7------7-5~~------7---7-5~~------7----7------7-5~~-------7-----7-5~~--------7
-5--------------------8~~-----7-5~~-5---5---------------------8~~--------------5
--------------------------------------------------------------------------------

VERSE:

Dm               C        B
While you were out... the message says

Dm               C      B                 
You left a number and I tried to call

Dm                     C           
But they wrote it down

    B                      Dm     C  
in a perfect Spanish scrawl

    B                               
in a perfect Spanish scrawl




Riff 1



VERSE:

Dm       C      B 
Yet again  I'm missing you

Dm           C        B                    
King size bed  (in a) hotel someplace

Dm               C      
I hear your name 

     B          Dm   C  
I see your face

     B               
I see your face




Riff 2 (harmonics with the indicative finger of right hand***)

--------------------------------------------------------------------------------
-------6~~-----------------------------------------6~~--------------------------
-----7------------9-5~~--------------------------7---------9-5~~----------5-7~~-
---7--------7-5~~--------7------7-5~~----------7------7-5~~-----7----7-5~~------
-5-------------------------8~~--------7-5~~---5-------------------8~~-----------
--------------------------------------------------------------------------------

CHORUS:


Riff 3 (2X)

        P.M.....       P.M.  P.M.....           P.M.....          P.M.                                                     
--------------------------------------------------------------------------------
--------------------------------------------------------------------------------
------------------3~~-3-----3---------------------------------------------------
------------------3~~-3-3-3-3-3-3-3-3--5~~-5\------------7~~-7\--------/8-8~~\/-
-------3-------3-----------------------3~~-3\--5---------5~~-5\--5-----/6-6~~\/-
-12\---1-1-1-1-1-------------------------------3-3-3-3-3---------3-3-3----------
[ Tab from: http://www.guitartabs.cc/tabs/d/deep_purple/sometimes_i_feel_like_screaming_tab_ver_2.html ]
(The) back street dolls and the side door of johnnies

The wide eyed the boys with their bags full of money

Back in the alley going bang to the wall

Tied to tail of a midnight crawl

Heaven wouldn't be high I know 

if the times gone by hadn't been so low 

The best laid plans come apart at the seams

and shatter all my dreams




VERSE:

Sometimes I feel like... 

Dm       C        B     
Screaming close my eyes

Dm                 C            B            
It's time like this my head goes down

Dm                        C      
and the only thing I know

       B                Dm  C     
is the name of this town

      B                        
is the name of town




(Piano to Guitar)


--------------------------------------------------------------------------------
-------6~~--5-----------------5-6-5~~-------------------------------------------
---7-9--------7-5~~--7-9-7~~-----------7-5-7~~----------------------------------
-7------------------------------------------------------------------------------
--------------------------------------------------------------------------------
--------------------------------------------------------------------------------



VERSE:

Dm       C        B              
Yet again I'm missing you

Dm           C        B           
won´t be long O' coming home

Dm                      C           
Until that distant time

B                 Dm   C            
I'll be moving on

B
I'll be moving on



Riff 2 (with some variations)



Riff 3 (Chorus) 2X



Solo(sorry, i cant figure it)



Riff 3 (4X)



Final solo:

                                                                               
--------------------------------------------------------------------------------
----------11~~---------------------------------------------------11~~-----------
-----------------------14-10~~--------------------------------------------------
-------12------12-10~~---------12------12-10~~----------------12------12-10~~---
----12----------------------------13~~---------12-10~~-----10-------------------
-10-----------------------------------------------------10----------------------


--------------------------------------------------------------------------------
--------------------------------------------------------------------------------
-12(14)RB-10~~------------------11-12(14)-11~~--------18------------------------
---------------12p10-----12-10~~--------------------17--16~~--------------------
---------------------13~~-------------------------15----------------------------
-------------------------------------------------------------------------------
 
 
:: Ultimate Guitar Archive :: 
http://www.ultimate-guitar.com 

Comments