Deep Purple - Sometimes I Feel Like Screaming Chords & Tabs

 

Sometimes I Feel Like Screaming Chords & Tabs

Deep Purple Chords & Tabs

Version: 1 Type: Tab 0 ratings
1 star 2 stars 3 stars 4 stars 5 stars
comments

Sometimes I Feel Like Screaming Tab

   
                        Sometimes I Feel Like Screaming                         


                                              Gillan, Glover, Morse, Lord, Paice
Guitar 1 (acoustic)
Notice---------



                                                            
E||-------------------------|------------------------------|
B||--------5--6~------------|------------------------------|
G||-------------------------|--------7h9h5-----------------|
D||-----7-------------7--5--|---------------------5-7-5-3--|
A||--5-------------8--------|-----7------------7-----------|
E||-------------------------|--8------------8--------------|


                                                                              
----------------------------|--------3------------|--------------------------|
----------------------------|--------3------------|---------5--6~------------|
----------------------------|--------0------------|-------7------------------|
--------5-7-5-----5--3-2-0--|--------0------------|-----7--------------7--5--|
-----5---------3------------|-----2---------------|--5--------------8--------|
--6-------------------------|--3------------------|--------------------------|


                                                           
------------------------------|---------------------------|
------------------------------|------------------------3--|
--------7-9-5-----------------|------------------0--5b----|
---------------------5-7-5-3--|--------5-7-5--------------|
-----7------------7-----------|-----5---------3-----------|
--8------------8--------------|--6------------------------|


                        Asus4     D/A#     Gm      
--------3------------|--5--5-5-5--5--------3--3-3-|
---------------------|--3--3-3-3--3----3-3-3--3-3-|
--0------------------|--2--2-2-2--3----3-3-3--3-3-|
---------------------|--2-------------------------|
---------------------|----------------------------|
-----3---------------|----------------------------|


          A#6    C      Csus2                                
--3-3-3-3-3--3-3-3--3-3-3--3-3-|--5--5-5-5--5--------3--3-3-|
--3-3-3-3-6--6-6-5--5-5-3--3-3-|--3--3-3-3--3----3-3-3--3-3-|
--3-3-3-3-3--3-3-5--5-5-5--5-5-|--2--2-2-2--3----3-3-3--3-3-|
-------------------------------|--2-------------------------|
-------------------------------|----------------------------|
-------------------------------|----------------------------|


                                                             
--3-3-3-3-3--3-3-3--3-3-3--3-3-|--5--5-5-5--5--------3--3-3-|
--3-3-3-3-6--6-6-5--5-5-3--3-3-|--3--3-3-3--3----3-3-3--3-3-|
--3-3-3-3-3--3-3-5--5-5-5--5-5-|--2--2-2-2--3----3-3-3--3-3-|
-------------------------------|--2-------------------------|
-------------------------------|----------------------------|
-------------------------------|----------------------------|


                                                             
--3-3-3-3-3--3-3-3--3-3-3--3-3-|--5--5-5-5--5--------3--3-3-|
--3-3-3-3-6--6-6-5--5-5-3--3-3-|--3--3-3-3--3----3-3-3--3-3-|
--3-3-3-3-3--3-3-5--5-5-5--5-5-|--2--2-2-2--3----3-3-3--3-3-|
-------------------------------|--2-------------------------|
-------------------------------|----------------------------|
-------------------------------|----------------------------|


                                                        
--3-3-3-3-3--3-3-3--3-3-3----|-------------------------|
--3-3-3-3-6--6-6-5--5-5-3----|--------5--6~------------|
--3-3-3-3-3--3-3-5--5-5-5----|-------------------------|
-----------------------------|-----7-------------7--5--|
-----------------------------|--5-------------8--------|
-----------------------------|-------------------------|


                                                            
------------------------------|----------------------------|
------------------------------|----------------------------|
--------7h9h5-----------------|----------------------------|
---------------------5-7-5-3--|--------5-7-5-----5--3-2-0--|
-----7------------7-----------|-----5---------3------------|
--8------------8--------------|--6-------------------------|


                                                   
--------3------------|--5--5-5-5--5--------3--3-3-|
--------3------------|--3--3-3-3--3----3-3-3--3-3-|
--------0------------|--2--2-2-2--3----3-3-3--3-3-|
--------0------------|--2-------------------------|
-----2---------------|----------------------------|
--3------------------|----------------------------|


                                                             
--3-3-3-3-3--3-3-3--3-3-3--3-3-|--5--5-5-5--5--------3--3-3-|
--3-3-3-3-6--6-6-5--5-5-3--3-3-|--3--3-3-3--3----3-3-3--3-3-|
--3-3-3-3-3--3-3-5--5-5-5--5-5-|--2--2-2-2--3----3-3-3--3-3-|
-------------------------------|--2-------------------------|
-------------------------------|----------------------------|
-------------------------------|----------------------------|


                                                             
--3-3-3-3-3--3-3-3--3-3-3--3-3-|--5--5-5-5--5--------3--3-3-|
--3-3-3-3-6--6-6-5--5-5-3--3-3-|--3--3-3-3--3----3-3-3--3-3-|
--3-3-3-3-3--3-3-5--5-5-5--5-5-|--2--2-2-2--3----3-3-3--3-3-|
-------------------------------|--2-------------------------|
-------------------------------|----------------------------|
-------------------------------|----------------------------|


                                                             
--3-3-3-3-3--3-3-3--3-3-3--3-3-|--5--5-5-5--5--------3--3-3-|
--3-3-3-3-6--6-6-5--5-5-3--3-3-|--3--3-3-3--3----3-3-3--3-3-|
--3-3-3-3-3--3-3-5--5-5-5--5-5-|--2--2-2-2--3----3-3-3--3-3-|
-------------------------------|--2-------------------------|
-------------------------------|----------------------------|
-------------------------------|----------------------------|


                                                        
--3-3-3-3-3--3-3-3--3-3-3----|-------------------------|
--3-3-3-3-6--6-6-5--5-5-3----|--------5--6-------------|
--3-3-3-3-3--3-3-5--5-5-5----|-------------------------|
-----------------------------|-----7------------7-8-5--|
-----------------------------|--5----------------------|
-----------------------------|-------------------------|


                                                                        
------------------------|------------------------|---------------------|
------------------------|------------------------|---------------------|
----x--7b-5-------------|------------------------|---------------5--7--|
------------------5--3--|----x--7b-5------3h2----|------------5--------|
---------------5--------|---------------------5--|---------------------|
------------------------|------------------------|---------------------|


                                                                           
-------------------------|------------------------|-----------------------|
--------5--6-------------|------------------------|--------------------3--|
-------------------------|----x--7b-5-------------|-----------------5b----|
-----7------------7-8-5--|------------------5--3--|----x--7b-5------------|
--5----------------------|---------------5--------|-----------------------|
-------------------------|------------------------|-----------------------|


                                                                         
------------------|--------------------------|--------------------------|
------------------|--------------------------|--------------------------|
------------------|--------------------------|--------------------------|
------------------|--3----------3--------x-x-|--3----------5--------x-x-|
------------------|--3--x-x-x-x-1--------x-x-|--3--x-x-x-x-3--------x-x-|
------------------|--1--x-x-x-x--------------|--1--x-x-x-x--------------|


                                                                               
--------------------------|------------------------|--------------------------|
--------------------------|------------------------|--------------------------|
--------------------------|------------------------|--------------------------|
--6----------6--------x-x-|--6----------8----------|--3----------3--------x-x-|
--6--x-x-x-x-4--------x-x-|--6--x-x-x-x-6----------|--3--x-x-x-x-1--------x-x-|
--4--x-x-x-x--------------|--4--x-x-x-x------------|--1--x-x-x-x--------------|


                                                                               
--------------------------|--------------------------|------------------------|
--------------------------|--------------------------|------------------------|
--------------------------|--------------------------|------------------------|
--3----------5--------x-x-|--6----------6--------x-x-|--6----------8----------|
--3--x-x-x-x-3--------x-x-|--6--x-x-x-x-4--------x-x-|--6--x-x-x-x-6----------|
--1--x-x-x-x--------------|--4--x-x-x-x--------------|--4--x-x-x-x------------|


                                                                                
------------------|--5--5-5-5--5--------3--3-3-|--3-3-3-3-3--3-3-3--3-3-3--3-3-|
------------------|-----3-3-3--3----3-3-3--3-3-|--3-3-3-3-6--6-6-5--5-5-3--3-3-|
------------------|-----2-2-2--3----3-3-3--3-3-|--3-3-3-3-3--3-3-5--5-5-5--5-5-|
------------------|----------------------------|-------------------------------|
------------------|----------------------------|-------------------------------|
------------------|----------------------------|-------------------------------|


                                                             
--5--5-5-5--5--------3--3-3-|--3-3-3-3-3--3-3-3--3-3-3--3-3-|
--3--3-3-3--3----3-3-3--3-3-|--3-3-3-3-6--6-6-5--5-5-3--3-3-|
--2--2-2-2--3----3-3-3--3-3-|--3-3-3-3-3--3-3-5--5-5-5--5-5-|
--2-------------------------|-------------------------------|
----------------------------|-------------------------------|
----------------------------|-------------------------------|


                                                             
--5--5-5-5--5--------3--3-3-|--3-3-3-3-3--3-3-3--3-3-3--3-3-|
--3--3-3-3--3----3-3-3--3-3-|--3-3-3-3-6--6-6-5--5-5-3--3-3-|
--2--2-2-2--3----3-3-3--3-3-|--3-3-3-3-3--3-3-5--5-5-5--5-5-|
--2-------------------------|-------------------------------|
----------------------------|-------------------------------|
----------------------------|-------------------------------|


                                                                                
--5--5-5-5--5--------3--3-3-|--3-3-3-3-3--3-3-3--3-3-3----|--1-----------------|
--3--3-3-3--3----3-3-3--3-3-|--3-3-3-3-6--6-6-5--5-5-3----|--3--------3--------|
--2--2-2-2--3----3-3-3--3-3-|--3-3-3-3-3--3-3-5--5-5-5----|--2--------3--------|
--2-------------------------|-----------------------------|--0--------3--------|
----------------------------|-----------------------------|-----------1--------|
----------------------------|-----------------------------|--------------------|


                                                              
--0--------0--------|-----------0--------|--3----------------|
--1--------1--------|--3--------1--------|--3----------------|
--0--------2--------|--3--------0--------|--0----------------|
--2--------2--------|--3--------2--------|--0----------------|
--3-----------------|--1--------3--------|--2----------------|
--------------------|--------------------|--3----------------|


                                                             
--5--5-5-5--5--------3--3-3-|--3-3-3-3-3--3-3-3--3-3-3--3-3-|
--3--3-3-3--3----3-3-3--3-3-|--3-3-3-3-6--6-6-5--5-5-3--3-3-|
--2--2-2-2--3----3-3-3--3-3-|--3-3-3-3-3--3-3-5--5-5-5--5-5-|
--2-------------------------|-------------------------------|
----------------------------|-------------------------------|
----------------------------|-------------------------------|


                                                             
--5--5-5-5--5--------3--3-3-|--3-3-3-3-3--3-3-3--3-3-3--3-3-|
--3--3-3-3--3----3-3-3--3-3-|--3-3-3-3-6--6-6-5--5-5-3--3-3-|
--2--2-2-2--3----3-3-3--3-3-|--3-3-3-3-3--3-3-5--5-5-5--5-5-|
--2-------------------------|-------------------------------|
----------------------------|-------------------------------|
----------------------------|-------------------------------|


                                                             
--5--5-5-5--5--------3--3-3-|--3-3-3-3-3--3-3-3--3-3-3--3-3-|
--3--3-3-3--3----3-3-3--3-3-|--3-3-3-3-6--6-6-5--5-5-3--3-3-|
--2--2-2-2--3----3-3-3--3-3-|--3-3-3-3-3--3-3-5--5-5-5--5-5-|
--2-------------------------|-------------------------------|
----------------------------|-------------------------------|
----------------------------|-------------------------------|


                                                           
--5--5-5-5--5--------3--3-3-|--3-3-3-3-3--3-3-3--3-3-3----|
--3--3-3-3--3----3-3-3--3-3-|--3-3-3-3-6--6-6-5--5-5-3----|
--2--2-2-2--3----3-3-3--3-3-|--3-3-3-3-3--3-3-5--5-5-5----|
--2-------------------------|-----------------------------|
----------------------------|-----------------------------|
----------------------------|-----------------------------|


                                                                          
------------------------|------------------------|-----------------------|
--------5--6------------|------------------------|-----------------------|
------------------------|----x--7b-5-------------|-----------------------|
-----7------------7--5--|------------------5--3--|----x--7b-5------3-----|
--5---------------------|---------------5--------|--------------------5--|
------------------------|------------------------|-----------------------|


                                                                           
------------------------|------------------------|------------------------|
------------------------|--------5--6------------|------------------------|
---------5--4-----7--4--|------------------------|----x--7b-5-------------|
------5--------5--------|-----7------------7--5--|---------------0--5--3--|
------------------------|--5---------------------|------------------------|
------------------------|------------------------|------------------------|


                                                                      
-----------------------|------------------|--------------------------|
--------------------3--|------------------|--------------------------|
-----------------5b----|------------------|--------------------------|
----x--7b-5------------|------------------|--3----------3--------x-x-|
-----------------------|------------------|--3--x-x-x-x-1--------x-x-|
-----------------------|------------------|--1--x-x-x-x--------------|


                                                                               
--------------------------|--------------------------|------------------------|
--------------------------|--------------------------|------------------------|
--------------------------|--------------------------|------------------------|
--3----------5--------x-x-|--6----------6--------x-x-|--6----------8----------|
--3--x-x-x-x-3--------x-x-|--6--x-x-x-x-4--------x-x-|--6--x-x-x-x-6----------|
--1--x-x-x-x--------------|--4--x-x-x-x--------------|--4--x-x-x-x------------|


                                                      
--------------------------|--------------------------|
--------------------------|--------------------------|
--------------------------|--------------------------|
--3----------3--------x-x-|--3----------5--------x-x-|
--3--x-x-x-x-1--------x-x-|--3--x-x-x-x-3--------x-x-|
--1--x-x-x-x--------------|--1--x-x-x-x--------------|


                                                                               
--------------------------|------------------------|--------------------------|
--------------------------|------------------------|--------------------------|
--------------------------|------------------------|-------------8--10b-------|
--6----------6--------x-x-|--6----------8----------|------8--10---------------|
--6----------4--------x-x-|--6----------6----------|--10----------------------|
--4--x-x-x-x--------------|--4--x-x-x-x------------|--------------------------|

[ Tab from: http://www.guitartabs.cc/tabs/d/deep_purple/sometimes_i_feel_like_screaming_tab.html ]
                                                                      
----------------------|---------------------|------------------------|
----------------------|---------------------|------------------------|
--10----------7--9b---|--9--------------5-2-|--5b----------3---------|
----------------------|---------------------|----------------5h3-----|
----------------------|---------------------|--------------------5h3-|
----------------------|---------------------|------------------------|


                                                                          
----------------------|--x------------------------|----------------------|
----------------------|--x--13b-------------------|--------------8-------|
---------------5-5b---|-----------------12r-10-12b|--12----------9b---9b-|
-------------7--------|---------------------------|----------------------|
--5-------------------|---------------------------|----------------------|
----------------------|---------------------------|----------------------|


                          
-------------------------|
-------------------------|
----7--5--5--3--2--0-----|
----------------------3b-|
-------------------------|
-------------------------|


                                                       
------------------------------------------10-11-13-15-|
---------------------------------10-11-13-------------|
---------------------------10-12----------------------|
----5-------------10-12-14----------------------------|
------------12-13-------------------------------------|
------------------------------------------------------|


                                                       
--15b-----15b-------15-13-|--15h13-------------x--12b-|
--------------------------|--------15b----------------|
--------------------------|---------------------------|
--------------------------|---------------------------|
--------------------------|---------------------------|
--------------------------|---------------------------|


                              
----12--10-------------------|
------------13---------------|
----------------12--9b-------|
-------------------------10--|
-----------------------------|
-----------------------------|


                                                        
----------------------------------------------15-17-18-|
-------------------------------------15-17-18----------|
----------------------------14-15-17-------------------|
--12~-----------------15-17----------------------------|
-------------15-17-19----------------------------------|
-------------------------------------------------------|


                                                      
--18b-----20b-------20-17-|--------------------12~---|
--------------------------|--20r18-20----------------|
--------------------------|--------------------------|
--------------------------|--------------------------|
--------------------------|--------------------------|
--------------------------|--------------------------|


                                                                            
--10~------12~------------|-----------------------|------------------------|
-----------------13~------|-----------------------|--------5--6------------|
------9~-------------9~---|--7--------------------|------------------------|
--------------------------|-----------9r-7h5-0----|-----7------------7--5--|
--------------------------|-----------------------|--5---------------------|
--------------------------|-----------------------|------------------------|


                                                                    
------------------------|-----------------------|------------------|
------------------------|-----------------------|------------------|
----x--7b-5-------------|-----------------------|------------------|
---------------0--5--3--|----x--7b-5------3--0--|------------------|
------------------------|-----------------------|------------------|
------------------------|-----------------------|------------------|


                                                                          
------------------------|------------------------|-----------------------|
--------5--6------------|------------------------|--------------------3--|
------------------------|----x--7b-5-------------|-----------------5b----|
-----7------------7--5--|---------------0--5--3--|----x--7b-5------------|
--5---------------------|------------------------|-----------------------|
------------------------|------------------------|-----------------------|


                                                                         
------------------|--------------------------|--------------------------|
------------------|--------------------------|--------------------------|
------------------|--------------------------|--------------------------|
------------------|--3----------3--------x-x-|--3----------5--------x-x-|
------------------|--3--x-x-x-x-1--------x-x-|--3--x-x-x-x-3--------x-x-|
------------------|--1--x-x-x-x--------------|--1--x-x-x-x--------------|


                                                                               
--------------------------|------------------------|--------------------------|
--------------------------|------------------------|--------------------------|
--------------------------|------------------------|--------------------------|
--6----------6--------x-x-|--6----------8----------|--3----------3--------x-x-|
--6--x-x-x-x-4--------x-x-|--6--x-x-x-x-6----------|--3--x-x-x-x-1--------x-x-|
--4--x-x-x-x--------------|--4--x-x-x-x------------|--1--x-x-x-x--------------|


                                                                               
--------------------------|--------------------------|------------------------|
--------------------------|--------------------------|------------------------|
--------------------------|--------------------------|------------------------|
--3----------5--------x-x-|--6----------6--------x-x-|--6----------8----------|
--3--x-x-x-x-3--------x-x-|--6--x-x-x-x-4--------x-x-|--6--x-x-x-x-6----------|
--1--x-x-x-x--------------|--4--x-x-x-x--------------|--4--x-x-x-x------------|


                                                      
--------------------------|--------------------------|
--------------------------|--------------------------|
--------------------------|--------------------------|
--3----------3--------x-x-|--3----------5--------x-x-|
--3--x-x-x-x-1--------x-x-|--3--x-x-x-x-3--------x-x-|
--1--x-x-x-x--------------|--1--x-x-x-x--------------|


                                                                               
--------------------------|------------------------|--------------------------|
--------------------------|------------------------|--------------------------|
--------------------------|------------------------|--------------------------|
--6----------6--------x-x-|--6----------8----------|--3----------3--------x-x-|
--6--x-x-x-x-4--------x-x-|--6--x-x-x-x-6----------|--3--x-x-x-x-1--------x-x-|
--4--x-x-x-x--------------|--4--x-x-x-x------------|--1--x-x-x-x--------------|


                                                                               
--------------------------|--------------------------|------------------------|
--------------------------|--------------------------|------------------------|
--------------------------|--------------------------|------------------------|
--3----------5--------x-x-|--6----------6--------x-x-|--6----------8----------|
--3--x-x-x-x-3--------x-x-|--6--x-x-x-x-4--------x-x-|--6--x-x-x-x-6----------|
--1--x-x-x-x--------------|--4--x-x-x-x--------------|--4--x-x-x-x------------|


                                                                               
---------------------------|------------------------|-------------------------|
---------9--10-------------|------------------------|-------------------------|
---------------------------|----x--11b-9------------|-------------------------|
-----11-------------11--9--|------------------9--7--|----x--11--9------9h7----|
--9------------------------|------------------------|----------------------9--|
---------------------------|------------------------|-------------------------|


                                                                        
------------------|---------------------------|------------------------|
------------------|---------9--10-------------|------------------------|
------------------|---------------------------|----x--11b-9------------|
------------------|-----11-------------11--9--|------------------9--7--|
------------------|--9------------------------|------------------------|
------------------|---------------------------|------------------------|


                                                                     
------------------------|------------------|------------------------|
---------------------7--|------------------|--------2--3------------|
------------------9b----|------------------|------------------------|
----x--11--9------------|------------------|-----4------------4--2--|
------------------------|------------------|--2---------------------|
------------------------|------------------|------------------------|


                                                                   
-----------------------|-----------------------|------------------|
-----------------------|-----------------------|------------------|
----x--4b-2------------|-----------------------|------------------|
-----------------2--0--|----x--4--2------0-----|------------------|
-----------------------|--------------------2~-|------------------|
-----------------------|-----------------------|------------------|


                                                           
------------------------------|---------------------------|
----------14--15--------------|---------------------------|
------------------------------|----x--16b-14--------------|
------16--------------16--14--|-------------------14--12--|
--14--------------------------|---------------------------|
------------------------------|---------------------------|


                                                  
---------------------------|---------------------|
---------------------------|---------------------|
-----------------16b---14--|--16-----------------|
----x--16--14--------------|---------------------|
---------------------------|--------7~-----------|
---------------------------|---------------------|


                                                                
----------14--15--------15--14--|------12h14-------------------|
------12------------12----------|------------15------12-15-15b-|
--------------------------------|------------------------------|
--14----------------------------|------------------------------|
--------------------------------|------------------------------|
--------------------------------|------------------------------|


                                       
-------12-----------------------------|
----------15-12--------------12-12-12-|
----------------14b-12-14-14----------|
--------------------------------------|
--------------------------------------|
--------------------------------------|


                                                     
-------------------------------------12-14-15-15b---|
----------------------------12-13-15----------------|
----------------------12-14-------------------------|
--14---------12-14-15-------------------------------|
----------14----------------------------------------|
----------------------------------------------------|


                                                                  
--15h12----12-----------------12--14--|--------------------------|
--------15----15h12-13----15----------|--------------------------|
--------------------------------------|--14----14r-------9h11h9--|
--------------------------------------|--------------------------|
--------------------------------------|--------------------------|
--------------------------------------|--------------------------|


                                                                         
----------------------|------------------|------------------------------|
----------------------|------------------|----------12--13--------------|
------9b-------9h7-9--|------------------|------------------------------|
----------------------|------------------|------14--------------14--12--|
----------------------|------------------|--12--------------------------|
----------------------|------------------|------------------------------|


                                                        
---------------------------|---------------------------|
---------------------------|---------------------------|
----x--14b-12--------------|---------------------------|
-------------------12--10--|----x--14--12------10------|
---------------------------|-----------------------12--|
---------------------------|---------------------------|


                                                    
---------------------------------------------------|
----------------------------------10-12-13-14/---0-|
--------------------------9-10-12----------x-------|
------------------9-10-12--------------------------|
----------8-10-12----------------------------------|
-------12------------------------------------------|


                                                           
------------------------------|---------------------------|
----------12--13--------------|---------------------------|
------------------------------|----x--14b-12--------------|
------14--------------14--12--|-------------------12--10--|
--12--------------------------|---------------------------|
------------------------------|---------------------------|


                                                                        
---------------------------|------------------|------------------------|
---------------------------|------------------|--------5--6------------|
---------------------------|------------------|------------------------|
----x--14--12----------14~-|------------------|-----7------------7--5--|
-------------------14--12~-|------------------|--5---------------------|
---------------------------|------------------|------------------------|


                                                                    
------------------------|-----------------------|------------------|
------------------------|-----------------------|------------------|
----x--7b-5-------------|-----------------------|------------------|
---------------0--5--3--|----x--7b-5------3--0--|------------------|
------------------------|-----------------------|------------------|
------------------------|-----------------------|------------------|


                                                                          
------------------------|------------------------|-----------------------|
--------5--6------------|------------------------|--------------------3b-|
------------------------|----x--7b-5-------------|-----------------5b----|
-----7------------7--5--|---------------0--5--3--|----x--7b-5------------|
--5---------------------|------------------------|-----------------------|
------------------------|------------------------|-----------------------|


                                                                             
-------------------|------------------|------------------|------------------|
--3----------------|------------------|------------------|------------------|
-------------------|------------------|------------------|------------------|
-------------------|------------------|------------------|------------------|
-------------------|------------------|------------------|------------------|
-------------------|------------------|------------------|------------------|


                                                                             
------------------|------------------|------------------|------------------||
------------------|------------------|------------------|------------------||
------------------|------------------|------------------|------------------||
------------------|------------------|------------------|------------------||
------------------|------------------|------------------|------------------||
------------------|------------------|------------------|------------------||


Comments