Deep Purple - Mistreated Chords & Tabs

 

Mistreated Chords & Tabs

Deep Purple Chords & Tabs

Version: 1 Type: Bass Tab 0 ratings
1 star 2 stars 3 stars 4 stars 5 stars
comments

Mistreated Bass Tab

Starting...
G|---------|
D|--->-----|
A|-2-4-----|
E|---------|

Riff 1
G|--------------------------------------------|
D|--------------------------------------------|
A|-------------------------------------4-2----|
E|-0h2--(2)2---0h2--(2)2---0h2--(2)2----------|
(...basic scale, feel free to improvise)


Riff 2
G|-------------------------------------------------------|
D|-------------------------------------------------------|
A|-0-(0)-00-(0)-0-0--2-(2)-22------------5-5-55----------|
E|------------------------------2-2-22-----------2-2-22--|


 cool fill to add!
 ------/---------
G|----------------|------------------------------|
D|----------------|------------------------------|
A|----------2-----|--0-(0)-00-(0)-0-0--2-(2)-22--|
E|--0-2-4-0---4-2-|------------------------------|


Fill 1 
G|--------------|------------------|
D|--------------|------------------|
A|-------0--2---|-------0---2---4--|
E|-2--4---------|-2--4-------------|

During 1st guitar solo play
G|----------------------------------|
D|----------------------------------|
A|----------------------------------|
E|--0h2--(2)2---0h2--(2)2......-----|
(...improvise freely!)

[ Tab from: http://www.guitartabs.cc/tabs/d/deep_purple/mistreated_btab.html ]
...during the last few bars of the 1st guitar solo
G|-------------------------------------------------------------|
D|-----------------------------------------------.-------------|
A|----------5-5-555------------5-5-555---4---2---4-------------|
E|-2-2-222-----------2-2-222-----------------------------------|


During 2nd guitar solo play
G|---------|
D|---------|
A|-----0-2-|
E|-2-4-----| (progressively increased speed and hits!)


song ends...
G|-------------|
D|---->--------|
A|----4--->----|
E|--------2----|

Well that's it. It's some kind of a tricky song (especially with the
improviations, but if you hear it carefully there sould be no problem).

I've tabbed the basic riffs. Put them together by hearing the song.

=============================================================================
==                          TABLATURE EXPLANATION                          ==
=============================================================================
----------                            ----------
----5h8--- Hammeron                   ----(8)--- Ghost Note
----------                            ----------
----5p8--- Pulloff                    ---8-[8]-- Tie
----------                            ----------
----5/8--- Slide Up                   -----x---- Dead Note
----------                            ----------
----58--- Slide Down                 ----------
----------                            ||------|| Repeat Start & End
----5~~~-- Vibrato                    ||*----*||
----------                            ||*----*||
----------                            ||------||
=============================================================================
Comments