Deep Purple - Maybe Im A Leo Chords & Tabs

 

Maybe Im A Leo Chords & Tabs

Deep Purple Chords & Tabs

Version: 2 Type: Tab 0 ratings
1 star 2 stars 3 stars 4 stars 5 stars
comments

Maybe Im A Leo Tab

                                          Artist - Deep Purple
                                         **********************
                                         Song - Maybe I'm A Leo
                                        ************************
                                          Album - Machine Head 
                                         **********************
                                          Tabbed By - Ayreon77
                                         **********************




            There Was No Need To Do The Full Song. 
           There Is Already A Good Version On Here,
http://tabs.ultimate-guitar.com/d/deep_purple/maybe_im_leo_tab.htm
                    A Great Tab By This User
       Except Its Missing The Solo. So Here Is The 2 Solos.


SOLO 1
*******
01:50
     Whammy               Whammy        Whammy
[-----|--|-----------------|---|---------|---]
[--b-----|---------rbp-----|---|-brp-----|---]
[-3------|--s---5--7--5---5----|-5--3---3----]
[--------|-5\7----------7------|------5------]
[--------|---------------------|-------------]
[--------|---------------------|-------------]

                                 Whammy
[---------------------------------|---|------8-------|----10----]
[-brp---------------b-rbp-----h-h-|---|--s-----12-11-|----10----]
[-5--3---3-5-3----5-5-5--3---3-4-5----|-7\12---------|-12----12-]
[------5-------5-----------5----------|--------------|----------]
[-------------------------------------|--------------|----------]
[-------------------------------------|--------------|----------]

                                                         slight   slight
02:07                                                     bend     bend
[------8----b-|-8--b-8-8-|--b-8-8-|--------------------|----|--------|----]
[--b-8---8-11-|---11-----|-11-----|-11-10-8------------|----b--------b----]
[-10----------|----------|--------|---------10-10-8----|-10-8-----10-8----]
[-------------|----------|--------|-----------------10-|------10-------10-]
[-------------|----------|--------|--------------------|------------------]
[-------------|----------|--------|--------------------|------------------]

    slight    slight         slight
     bend      bend           bend
[------|----|----|---------|----|---------|------------b-]
[----8-b----|----b---------|----b---------b-----------11-]
[-10---8----|-10-8---------|----8------10-8----8-10-8----]
[--------10-|------10-8----|-10---10-8------10-----------]
[-----------|-----------10-|-----------------------------]
[-----------|--------------|-----------------------------]

                            hold hold     hold hold     hold 
02:17                       bend bend     bend bend     bend        b
[-8-----------8-|--b-8-8--b--|----|-----b--|----|-----b--|----rb---13-]
[---8-11--b-8---|-11-----11-11---11----11-11---11----11-11---11-------]
[--------10-----|-----------------------------------------------------]
[---------------|-----------------------------------------------------]
[---------------|-----------------------------------------------------]
[---------------|-----------------------------------------------------]

[ Tab from: http://www.guitartabs.cc/tabs/d/deep_purple/maybe_im_a_leo_tab_ver_2.html ]
------------------------------------------------
------------------------------------------------
SOLO 2
*******
04:01                                Whammy
[--b--b--b----b---------|-------------|--|-----------|----------------]
[-11-11-11---11-8-11--b-|--b-11--b--b-|--|---------b-|--brp-----------]
[--------------------10-|-10----10-10-8--|-7-8-10-10-|-10--8----8---s-]
[-----------------------|----------------|-----------|-------10---10\-]
[-----------------------|----------------|-----------|----------------]
[-----------------------|----------------|-----------|----------------]


[------8----b-8---|----8---|--b-8--b-8-8---|--b-8--b-8-]
[--b-8---8-11---8-|-11---8-|-11---11-----8-|-11---11---]
[-10--------------|--------|---------------|-----------]
[-----------------|--------|---------------|-----------]
[-----------------|--------|---------------|-----------]
[-----------------|--------|---------------|-----------]


[--b-8-10----8-11-8----|--h--p-------8--b-|-8-----------8-|-----------------]
[-11------11--------11-|-8-11-8----8---11-|---8-11-8--b---|-----------------]
[----------------------|--------10--------|----------10---|-10-8----10-8----]
[----------------------|------------------|---------------|------10------10-]
[----------------------|------------------|---------------|-----------------]
[----------------------|------------------|---------------|-----------------]


[-------|---------|---------|-----------|-----------|-----------------]
[-------|------s--|------h--|------h----|--h-p------|-----b--b--br----]
[-8-8-8-|-7-7-7\5-|-5-5-5-7-|-5-5-5-7-5-|-5-7-5---5-|-3-5-5--5--5-3-5-]
[-------|---------|---------|-----------|-------7---|-----------------]
[-------|---------|---------|-----------|-----------|-----------------]
[-------|---------|---------|-----------|-----------|-----------------]

                    hold                                              hold
                    bends                                             bends
[-b-6--b-6--b-6-6-b-|-|-|-|-|-|-rb------|-------|b-8--b-8--b-8-b-8-b-|-|-rb-]
[-6----6----6-----6-6-6-6-6-6-6-6-4-6---|--h--6-|8----8----8---8---8-8-8-8--]
[-------------------------------------5-|-5-7---|---------------------------]
[---------------------------------------|-------|---------------------------]
[---------------------------------------|-------|---------------------------]
[---------------------------------------|-------|---------------------------]

                                                slight
                                                 bend            fade out
[---------8-|---------|-8-----------8--------------|----|-------------------]
[-6-8--s----|-8-10-11-|---8-11--b-8---8------------b----|--p-------h--p-----]
[-----7\9---|---------|--------10-------10-8----10-8----|10-8-----8-10-8----]
[-----------|---------|----------------------10------10-|-----10---------10-]
[-----------|---------|---------------------------------|-------------------]
[-----------|---------|---------------------------------|-------------------]


[--------------------------]
[---p--------p-------b---b-]
[--10-8-----10-8-----8--10-]
[-------10-------10--------]
[--------------------------]
[--------------------------]



A Tough Couple of Solos to Play To. Enjoy..........
Comments