Deep Purple - Knocking At Your Back Door Chords & Tabs

 

Knocking At Your Back Door Chords & Tabs

Deep Purple Chords & Tabs

Version: 1 Type: Bass Tab 0 ratings
1 star 2 stars 3 stars 4 stars 5 stars
comments

Knocking At Your Back Door Bass Tab

                          Knocking at your back door                            


                                                                     
BASS



                                                                               
G||------------------|------------------|------------------|------------------|
D||------------------|------------------|------------------|------------------|
A||------------------|------------------|------------------|------------------|
E||------------------|------------------|------------------|------------------|


                                                                         
------------------|--------------------------|--------------------------|
------------------|--------------------------|--------------------------|
------------------|--------------------------|--------------------------|
------------------|--3--3--3--3--3--3--3--3--|--3--3--3--3--3--3--3--3--|


                                                      
--------------------------|--------------------------|
--------------------------|--------------------------|
--------------------------|--------------------------|
--3--3--3--3--3--3--3--3--|--3--3--3--3--3--3--3--3--|


                                                      
--------------------------|--------------------------|
--------------------------|--------------------------|
--------------------------|--------------------------|
--3--3--3--3--3--3--3--3--|--3--3--3--3--3--3--3--3--|


                                                      
--------------------------|--------------------------|
--------------------------|--------------------------|
--------------------------|--------------------------|
--3--3--3--3--3--3--3--3--|--3--3--3--3--3--3--3--3--|


                                                      
--------------------------|--------------------------|
--------------------------|--------------------------|
--------------------------|--------------------------|
--3--3--3--3--3--3--3--3--|--3--3--3--3--3--3--3--3--|


                                                      
--------------------------|--------------------------|
--------------------------|--------------------------|
--------------------------|--------------------------|
--3--3--3--3--3--3--3--3--|--3--3--3--3--3--3--3--3--|


                                                                               
--------------------------|--------------------------|------------------------|
--------------------------|--------------------------|------------------------|
--------------------------|--------------------------|------------------------|
--7--7--7--7--7--7--7--7--|--7--7--7--7--7--7--7--5--|--3--3----3--5--5----5--|


                                                      
--------------------------|--------------------------|
--------------------------|--------------------------|
-----------------5--------|--------------------------|
--7--7--7h-5--7-----7--7--|--7--7--7--7--7--7--7--7--|


                                                                                
--------------------------|------------------------|---------------------------|
--------------------------|------------------------|---------------7-----------|
--------------------------|------------------------|-----------7h9----9--7--5--|
--7--7--7--7--7--7--7--5--|--3--3----3--5--5----5--|--7--7--7------------------|


                                                                 
---------------------|-----7--------------|---------------------|
---------------------|--------------------|---------------------|
---------------------|--5-----------------|---------------------|
--7--7/-----x--------|--------------------|--5--5--5------------|


                                                                      
------------------------|----------------------|--------7------------|
------------------------|----------------------|-----7---------------|
------------------------|----------------------|--5------------------|
--3--3--3----5--5--5----|--7--7--7/---x--------|---------------------|


                                                                         
----------------------|--------------------------|----------------------|
----------------------|--------------------------|----------------------|
----------------------|--7--7--7--7--7--7--7--7--|----------------------|
--5--5--5/---x--------|--------------------------|--7--7--7/---x--------|


                                                                     
---------------------|---------------------|------------------------|
---------------------|--------7------------|------------------------|
--5--5--5------------|-----7---------------|------------------------|
---------------------|--5------------------|--3--3--3----5--5--5----|


                                                                   
----------------------|---------------------|---------------------|
----------------------|---------------------|---------------------|
----------------------|--5--0--5------------|---------------------|
--7--2--7/---x--------|---------------------|--5--0--5------------|


                                                                      
--------------------|-------------------------|----------------------|
--------------------|-------------5-----------|----------------------|
--------------------|----------------5--------|--------------7-------|
--7--------5--------|--3--3--3----------3--2--|--0------7-------7----|


                                                                       
---------------------|-----------------------|------------------------|
---------------------|------------------7----|------------5-----------|
--5------4------2----|---------4--5--7-------|---------5-----5--------|
---------------------|--5--------------------|--3---------------3/-2--|


                                                                     
-----------------------|----------------------|---------------------|
-----------------------|----------------------|--7------7------7----|
--------------7--------|--5------4------7/-9--|---------------------|
--0------7-------7--7--|----------------------|---------------------|


                                                                            
---------------------|--------------------------|--------------------------|
--7------------------|--------------------------|--------------------------|
---------------------|--------------------------|--------------------------|
---------------2/-5--|--7--7--7--7--7--7--7--7--|--7--7--7--7--7--5--7--5--|


                                                                             
-----------------------|-------------------------|--------------------------|
-----------------------|-------------------------|--------------------------|
-----------------------|----------------5--7-----|--------------------------|
--3------3--5--5----5--|--7--7----5--7--------7--|--7--7--7--7--7--7--7--7--|


                                                                               
--------------------------|------------------------|--------------------------|
--------------------------|------------------------|-----------------7-----9--|
--------------------------|------------------------|-----7--5--7--9-----9-----|
--7--7--7--7--7--7--7--5--|--3--3----3--5--5----5--|--7-----------------------|


                                                                               
--------------------------|--------------------------|------------------------|
--------------------------|--------------------------|------------------------|
--------------------------|--------------------------|------------------------|
--7--7--7--7--7--7--7--7--|--7--7--7--7--7--7--7--5--|--3--3----3--5--5----5--|


                                                                                
-------------------------|--------------------------|--------------------------|
-------------------------|--------------------------|--------------------------|
----------5--------------|--------------------------|--------------------------|
--7--7-------7--7--5--7--|--7--7--7--7--7--7--7--7--|--7--7--7--7--7--7--7--9--|


                                                                             
-------------------------------|---------9----7----6--|----------0----------|
-------------------------------|----------------------|----7--9-------------|
------------------7--7------7--|--7-------------------|---------------------|
--10--10--10--10--------10-----|----------------------|---------------------|


                                                                 
---------------------|-----7--------------|---------------------|
---------------------|--------------------|---------------------|
---------------------|--5-----------------|---------------------|
--7--7/-----x--------|--------------------|--5--5--5------------|


                                                                      
------------------------|----------------------|--------7------------|
------------------------|----------------------|-----7---------------|
------------------------|----------------------|--5------------------|
--3--3--3----5--5--5----|--7--7--7/---x--------|---------------------|


                                                                         
----------------------|--------------------------|----------------------|
----------------------|--------------------------|----------------------|
----------------------|--7--7--7--7--7--7--7--7--|----------------------|
--5--5--5/---x--------|--------------------------|--7--7--7/---x--------|


                                                                     
---------------------|---------------------|------------------------|
---------------------|--------7------------|------------------------|
--5--5--5------------|-----7---------------|------------------------|
---------------------|--5------------------|--3--3--3----5--5--5----|


                                                                   
----------------------|---------------------|---------------------|
----------------------|---------------------|---------------------|
----------------------|--5--0--5------------|---------------------|
--7--2--7/---x--------|---------------------|--5--0--5------------|


                                                                      
--------------------|-------------------------|----------------------|
--------------------|-------------5-----------|----------------------|
--------------------|----------------5--------|--------------7-------|
--7--------5--------|--3--3--3----------3--2--|--0------7-------7----|


                                                                       
---------------------|-----------------------|------------------------|
---------------------|------------------7----|------------5-----------|
--5------4------2----|---------4--5--7-------|---------5-----5--------|
---------------------|--5--------------------|--3---------------3/-2--|


                                                                     
-----------------------|----------------------|---------------------|
-----------------------|----------------------|--7------7------7----|
--------------7--------|--5------4------7/-9--|---------------------|
--0------7-------7--7--|----------------------|---------------------|


                                                                            
---------------------|--------------------------|--------------------------|
--7------------------|--------------------------|--------------------------|
---------------------|--------------------------|--------------------------|
---------------2/-5--|--7--7--7--7--7--7--7--7--|--7--7--7--7--7--5--7--5--|


                                                                             
-----------------------|-------------------------|--------------------------|
-----------------------|-------------------------|--------------------------|
-----------------------|----------------5--7-----|--------------------------|
--3------3--5--5----5--|--7--7----5--7--------7--|--7--7--7--7--7--7--7--7--|


                                                                               
--------------------------|------------------------|--------------------------|
--------------------------|------------------------|-----------------7-----9--|
--------------------------|------------------------|-----7--5--7--9-----9-----|
--7--7--7--7--7--7--7--5--|--3--3----3--5--5----5--|--7-----------------------|


                                                                               
--------------------------|--------------------------|------------------------|
--------------------------|--------------------------|------------------------|
--------------------------|--------------------------|------------------------|
--7--7--7--7--7--7--7--7--|--7--7--7--7--7--7--7--5--|--3--3----3--5--5----5--|

[ Tab from: http://www.guitartabs.cc/tabs/d/deep_purple/knocking_at_your_back_door_btab.html ]
                                                                                
-------------------------|--------------------------|--------------------------|
-------------------------|--------------------------|--------------------------|
----------5--------------|--------------------------|--------------------------|
--7--7-------7--7--5--7--|--7--7--7--7--7--7--7--7--|--7--7--7--7--7--7--7--9--|


                                                          
-------------------------------|-----9-----9-----9-------|
-------------------------------|-------------------------|
------------------7--7------7--|--7-----7-----7-----7/---|
--10--10--10--10--------10-----|-------------------------|


                                                                             
------------------------|-------------------------|-------------------------|
------------2-----2--4--|-------4--2--------------|-------4-----2-----------|
---------4-----4--------|-------------4--2--4--0--|----------4-----0--2--0--|
--2---------------------|--2----------------------|--2----------------------|


                                                                           
------------------------|------------2-----------|------------------------|
------------------------|---------------2--4-----|-------4-----2-----4----|
--4------2--4-----------|---------4-----------4--|----------4-----4-------|
---------------0--2--4--|--2---------------------|--2---------------------|


                                                                           
-------------------------|-----------------------|------------------------|
-------4-----2-----------|--------2--0-----------|------------2-----------|
----------4-----4--2--0--|--0--4--------------0--|---------4-----0--2--4--|
--2----------------------|-----------------------|--2---------------------|


                                                                            
------------------------|-------------------------|------------------------|
-------4-----4-----2/---|-------4-----2-----------|------------------------|
----------4-----4-------|----------4-----2--0--2--|--4---------------2--4--|
--2---------------------|--2----------------------|---------0--2--4--------|


                                                                              
-------------------2-----|-------------------------|-------------------------|
-------4-----2--4-----2--|-------4-----2-----------|-------4-----2-----------|
----------4--------------|----------4-----2--4--0--|----------4-----4--2--0--|
--2----------------------|--2----------------------|--2----------------------|


                                                                           
----------------------|-------------------------|-------------------------|
--------2--0----------|-------4-----2-----2--4--|-------4-----2-----------|
--0--4----------------|----------4-----4--------|----------4-----4--2--0--|
----------------------|--2----------------------|--2----------------------|


                                                                             
------------------------|-------------------------|-------------------------|
-------4----------------|-------------------------|-------4-----2-----2--4--|
----------4--0----2--0--|--4----2--4-----------4--|----------4-----4--------|
--2---------------------|-------------0--2--4-----|--2----------------------|


                                                                            
-------------------------|-------------------------|-----------------------|
-------4---2-4--2--------|-------4-----------------|--------0--2------2----|
-------------------4--0--|-------------------------|--0--4-----------------|
--2----------------------|--2-------2--2--2--0--2--|-----------------------|


                                                            
------------------------|-----------|----------------------|
--2----2----2--2--2--2--|--2--------|----------------------|
------------------------|-----------|----------------------|
------------------------|-----------|--7--7--7/---x--------|


                                                                     
---------------------|---------------------|------------------------|
---------------------|--------7------------|------------------------|
--5--5--5------------|-----7---------------|------------------------|
---------------------|--5------------------|--3--3--3----5--5--5----|


                                                                   
----------------------|---------------------|---------------------|
----------------------|---------------------|---------------------|
----------------------|--5--0--5------------|---------------------|
--7--2--7/---x--------|---------------------|--5--0--5------------|


                                                                      
--------------------|-------------------------|----------------------|
--------------------|-------------5-----------|----------------------|
--------------------|----------------5--------|--------------7-------|
--7--------5--------|--3--3--3----------3--2--|--0------7-------7----|


                                                                       
---------------------|-----------------------|------------------------|
---------------------|------------------7----|------------5-----------|
--5------4------2----|---------4--5--7-------|---------5-----5--------|
---------------------|--5--------------------|--3---------------3/-2--|


                                                                          
-----------------------|----------------------|--------------------------|
-----------------------|----------------------|--7--7--7--7--7--7--7--7--|
--------------7--------|--5------4------7/-9--|--------------------------|
--0------7-------7--7--|----------------------|--------------------------|


                                                      
--------------------------|--------------------------|
--7--7--7--7--7--7--7--7--|--7--7--7--7--7--7--7--7--|
--------------------------|--------------------------|
--------------------------|--------------------------|


                                                      
--------------------------|--------------------------|
--7--5--4--5--4-----------|--------------------------|
-----------------7--5--4--|--------------------------|
--------------------------|--7--7--7--7--7--7--7--7--|


                                                                              
--------------------------|------------------------|-------------------------|
--------------------------|------------------------|-------------------------|
--------------------------|------------------------|----------------5--7--9--|
--7--7--7--7--7--7--7--5--|--3--3----3--5--5----5--|--7--7----5--7-----------|


                                                                               
--------------------------|--------------------------|------------------------|
--------------------------|--------------------------|------------------------|
--------------------------|--------------------------|------------------------|
--7--7--7--7--7--7--7--7--|--7--7--7--5--7--5--7--5--|--3--3----3--5--5----5--|


                                                                   
------------------------|--------------------|--------------------|
------------------------|--------------------|--------------------|
-------------5--7--9/---|--------------------|--------------------|
--7--7----7-------------|------7/-------7/---|------7/-------7/---|


                                                               
--------------------|--------------------|--------------------|
--------------------|--------------------|--------------------|
--------------------|--------------------|--------------------|
------3/-------5/---|------7/-------7/---|------7/-------7/---|


                                                                  
--------------------|--------------------|-----------------------|
--------------------|--------------------|-----------------------|
--------------------|--------------------|------------9--7--5----|
------7/-------7/---|------3/-------5/---|----7----5-------------|


                                                                               
--------------------------|--------------------------|------------------------|
--------------------------|--------------------------|------------------------|
--------------------------|--------------------------|------------------------|
--7--7--7--7--7--7--7--7--|--7--7--7--7--7--7--7--5--|--3--3----3--5--5----5--|


                                                                               
------------------------|--------------------------|--------------------------|
------------------------|--------------------------|--------------------------|
-----5----7----8--9-----|--------------------------|--------------------------|
--7------------------7--|--7--7--7--7--7--7--7--7--|--7--7--7--7--7--7--7--9--|


                                                        
----------------------------|--------------------------|
----------------------------|-----7--------------------|
----------------7--5--7--5--|--9-----9--7--5--------5--|
--10--9--10--9--------------|-----------------7--5-----|


                                                                               
--------------------------|--------------------------|------------------------|
--------------------------|--------------------------|------------------------|
--------------------------|--------------------------|------------------------|
--7--7--7--7--7--7--7--7--|--7--7--7--7--7--5--7--5--|--3--3----3--5--5----5--|


                                                                                
-------------------------|--------------------------|--------------------------|
-------------------------|--------------------------|--------------------------|
-------------------------|--------------------------|-----------------------4--|
--7--7--7--5--2----5--7--|--7--7--7--7--7--7--7--7--|--7--7--7--7--7--7--7-----|


                                                                               
-----------------------|---------------------------|--------------------------|
-----------------------|------------------7--------|--------------------------|
--5----5----7--7-------|---------------9-----9--7--|--------------------------|
------------------5----|--7--7--7--10--------------|--7--7--7--7--7--7--7--7--|


                                                                                
--------------------------|------------------------|---------------------------|
--------------------------|------------------------|---------------------------|
--------------------------|------------------------|-----------5-----7---------|
--7--7--7--7--7--7--7--5--|--3--3----3--5--5----5--|--7--5--7-----7-----10--9--|


                                                                               
--------------------------|--------------------------|------------------------|
--------------------------|--------------------------|------------------------|
--------------------------|--------------------------|------------------------|
--7--7--7--7--7--7--7--7--|--7--7--7--7--7--7--7--7--|--3--3----3--5--5----5--|


                                                      
--------------------------|--------------------------|
--------------------------|--------------------------|
--------------------------|--------------------------|
--7--7--7--7--7--7--2/-5--|--7--7--7--7--7--7--7--7--|


                                                                               
--------------------------|------------------------|--------------------------|
--------------------------|------------------------|--------------------------|
--------------------------|------------------------|-----------------5--7h-9--|
--7--7--7--7--7--7--7--7--|--3--3----3--5--5----5--|--7--7--7--7--7-----------|


                                                                               
--------------------------|--------------------------|------------------------|
--------------------------|-----------7--------------|------------------------|
--------------------------|--------------9--7--5-----|------------------------|
--7--7--7--7--7--7--7--7--|--7--7--7--------------7--|--3--3----3--5--5----5--|


                                                       
---------------------------|--------------------------|
---------------------------|--------------------------|
--7------------------------|--------------------------|
-----10--9--10--9--5--3/---|--7--7--7--7--7--7--7--7--|


                                                                              
--------------------------|------------------------|-------------------------|
--------------------------|------------------------|-------------------------|
--------------------------|------------------------|-------------9--7--7--5--|
--7--7--7--7--7--7--7--5--|--3--3----3--5--5----5--|--7--7----7--------------|


                                                      
--------------------------|--------------------------|
--------------------------|--------------------------|
--------------------------|--------------------------|
--7--7--7--7--7--7--7--7--|--7--7--7--7--7--7--7--7--|


                                                      
--------------------------|--------------------------|
--------------------------|-----4--2--0--------------|
--------------0--0--0--0--|--2-----------2--0-----0--|
--3--3--3--3--------------|--------------------2-----|


                            
--------------------------||
--------------------------||
--2--2--2--2--2--2--2--2--||
--------------------------||
Comments