Deep Purple - Gypsys Kiss Chords & Tabs

 

Gypsys Kiss Chords & Tabs

Deep Purple Chords & Tabs

Version: 1 Type: Bass Tab 0 ratings
1 star 2 stars 3 stars 4 stars 5 stars
comments

Gypsys Kiss Bass Tab

                                 Gypsy's kiss                                   


                                                                     
BASS



                                                         
G||--0--0--0--0--0--0--0--0--|--0--0--0--0--0--0--0--0--|
D||--------------------------|--------------------------|
A||--------------------------|--------------------------|
E||--------------------------|--------------------------|


                                                      
--0--0--0--0--0--0--0--0--|--0--0--0--0--0--0--0--0--|
--------------------------|--------------------------|
--------------------------|--------------------------|
--------------------------|--------------------------|


                                                      
--0--0--0--0--0--0--0--0--|--0--0--0--0--0--0--0--0--|
--------------------------|--------------------------|
--------------------------|--------------------------|
--------------------------|--------------------------|


                                                      
--0--0--0--0--0--0--0--0--|--0--0--0--0--0--0--0--0--|
--------------------------|--------------------------|
--------------------------|--------------------------|
--------------------------|--------------------------|


                                                      
--------------------------|--------------------------|
--5--5--5--5--5--5--5--5--|--5--5--5--5--5--5--5--5--|
--------------------------|--------------------------|
--------------------------|--------------------------|


                                                      
--------------------------|--------------------------|
--5--5--5--5--5--5--5--5--|--5--5--5--5--5--5--5--5--|
--------------------------|--------------------------|
--------------------------|--------------------------|


                                                      
--------------------------|--------------------------|
--5--5--5--5--5--5--5--5--|--5--5--5--5--5--5--5--5--|
--------------------------|--------------------------|
--------------------------|--------------------------|


                                                                                
--------------------------|--------3----------------|--------------------------|
--5--5--5--5--5--5--5--5--|--5--5-----5--3--0-------|--------------------------|
--------------------------|--------------------1----|--------------------------|
--------------------------|-------------------------|--3--3--3--3--3--3--3--3--|


                                                                               
--------------------------|--------------------------|------------------------|
--------------------------|--------------------------|------------------------|
--------------------------|-----------------------3--|------3--3--3--3--3--3--|
--3--3--3--3--3--3--3--3--|--3--3--3--3--3--3--3-----|------------------------|


                                                                            
--------------------------|--------------------------|---------------------|
--------------------------|--------------------------|----------------5----|
--------------------------|--------------------------|--3------6-----------|
--3--3--3--3--3--3--3--3--|--3--3--3--3--3--3--3--3--|---------------------|


                                                                            
----5------8----7----|--------------------------|--------------------------|
---------------------|--------------------------|--------------------------|
---------------------|--------------------------|--------------------------|
---------------------|--3--3--3--3--3--3--3--3--|--3--3--3--3--3--3--3--3--|


                                                                               
--------------------------|------------------------|--------------------------|
--------------------------|------------------------|--------------------------|
-----------------------3--|------3--3--3--3--3--3--|--------------------------|
--3--3--3--3--3--3--3-----|------------------------|--3--3--3--3--3--3--3--3--|


                                                                       
--------------------------|---------------------|----5------8----7----|
--------------------------|----------------5----|---------------------|
--------------------------|--3------6-----------|---------------------|
--3--3--3--3--3--3--3--3--|---------------------|---------------------|


                                                      
--------------------------|--------------------------|
--------------------------|--------------------------|
--------------------------|--------------------------|
--3--3--3--3--3--3--3--3--|--3--3--3--3--3--3--3--3--|


                                                      
--------------------------|--------------------------|
--------------------------|--------------------------|
--------------------------|--------------------------|
--3--3--3--3--3--3--3--3--|--3--3--3--3--3--3--3--3--|


                                                      
--------------------------|--------------------------|
--------------------------|--------------------------|
--1--1--1--1--1--1--1--1--|--1--1--1--1--1--1--1--1--|
--------------------------|--------------------------|


                                                      
--------------------------|--------------------------|
--------------------------|--------------------------|
--1--1--1--1--1--1--1--1--|--------------------------|
--------------------------|--1--1--1--1--2--2--2--2--|


                                                      
--------------------------|--------------------------|
--------------------------|--------------------------|
--------------------------|--------------------------|
--3--3--3--3--3--3--3--3--|--3--3--3--3--3--3--3--3--|


                                                      
--------------------------|--------------------------|
--------------------------|--------------------------|
--------------------------|--------------------------|
--3--3--3--3--3--3--3--3--|--3--3--3--3--3--3--3--3--|


                                                      
--------------------------|--------------------------|
--------------------------|--------------------------|
--3--3--3--3--3--3--3--3--|--3--3--3--3--3--3--3--3--|
--------------------------|--------------------------|


                                                                                
--------------------------|-------------------------|--------------------------|
--------------------------|-------------------------|--------------------------|
--------------------------|-----------1--1--1--3----|--5--5--5--5--5--5--5--5--|
--3--3--3--3--3--3--3--3--|--3--3--3----------------|--------------------------|


                                                      
--------------------------|--------------------------|
--------------------------|--------------------------|
--5--5--5--5--5--5--5--5--|--------------------------|
--------------------------|--5--5--5--5--5--5--5--5--|


                                                                               
--------------------------|-------------------------|-------------------------|
--------------------------|-------------------------|-------------------------|
--------------------------|--3--3--3--3--3--3-------|--3--3--3--3--3--3-------|
--5--5--5--5--5--5--5--5--|--------------------3----|--------------------3----|


                                                                               
-------------------------|-------------------------|--------------------------|
-------------------------|-------------------------|--------------------------|
--3--3--3--3--3--3-------|--2--2--2--2--2--2-------|--------------------------|
--------------------3----|--------------------3----|--5--5--5--5--5--5--5--5--|


                                                                               
-------------------------|-------------------------|--------------------------|
-------------------------|-------------------------|--------------------------|
-----------3--3--3--5----|--7----7--7--7--7--7--7--|--7--7--7--7--7--7--7--7--|
--5--5--5----------------|-------------------------|--------------------------|


                                                                          
------------------------|------------------------|-----------------------|
------------------------|------------------------|--3------2h-3h-2-------|
--8----8--8--8--6--3----|--8----8--8--8--6--3----|------------------3----|
------------------------|------------------------|-----------------------|


                                                                         
------------------------|--------------------------|--------------------|
------------------------|--------------------------|--------------------|
--5------5--5--5--5--5--|--5--5--5--5--5--5--5--5--|--5--------3--------|
------------------------|--------------------------|--------------------|


                                                                           
--------------------|--------------------------|--------------------------|
--------------------|--------------------------|--------------------------|
--1--------0--------|--------------------------|--------------------------|
--------------------|--3--3--3--3--3--3--3--3--|--3--3--3--3--3--3--3--3--|


                                                                               
--------------------------|------------------------|--------------------------|
--------------------------|------------------------|--------------------------|
-----------------------3--|------3--3--3--3--3--3--|--------------------------|
--3--3--3--3--3--3--3-----|------------------------|--3--3--3--3--3--3--3--3--|


                                                                       
--------------------------|---------------------|----5------8----7----|
--------------------------|----------------5----|---------------------|
--------------------------|--3------6-----------|---------------------|
--3--3--3--3--3--3--3--3--|---------------------|---------------------|


                                                      
--------------------------|--------------------------|
--------------------------|--------------------------|
--------------------------|--------------------------|
--3--3--3--3--3--3--3--3--|--3--3--3--3--3--3--3--3--|


                                                      
--------------------------|--------------------------|
--------------------------|--------------------------|
--------------------------|--------------------------|
--3--3--3--3--3--3--3--3--|--3--3--3--3--3--3--3--3--|


                                                      
--------------------------|--------------------------|
--------------------------|--------------------------|
--1--1--1--1--1--1--1--1--|--1--1--1--1--1--1--1--1--|
--------------------------|--------------------------|


                                                      
--------------------------|--------------------------|
--------------------------|--------------------------|
--1--1--1--1--1--1--1--1--|--------------------------|
--------------------------|--1--1--1--1--2--2--2--2--|


                                                      
--------------------------|--------------------------|
--------------------------|--------------------------|
--------------------------|--------------------------|
--3--3--3--3--3--3--3--3--|--3--3--3--3--3--3--3--3--|


                                                      
--------------------------|--------------------------|
--------------------------|--------------------------|
--------------------------|--------------------------|
--3--3--3--3--3--3--3--3--|--3--3--3--3--3--3--3--3--|


                                                      
--------------------------|--------------------------|
--------------------------|--------------------------|
--3--3--3--3--3--3--3--3--|--3--3--3--3--3--3--3--3--|
--------------------------|--------------------------|


                                                                                
--------------------------|-------------------------|--------------------------|
--------------------------|-------------------------|--------------------------|
--------------------------|-----------1--1--1--3----|--5--5--5--5--5--5--5--5--|
--3--3--3--3--3--3--3--3--|--3--3--3----------------|--------------------------|


                                                      
--------------------------|--------------------------|
--------------------------|--------------------------|
--5--5--5--5--5--5--5--5--|--------------------------|
--------------------------|--5--5--5--5--5--5--5--5--|


                                                                               
--------------------------|-------------------------|-------------------------|
--------------------------|-------------------------|-------------------------|
--------------------------|--3--3--3--3--3--3-------|--3--3--3--3--3--3-------|
--5--5--5--5--5--5--5--5--|--------------------3----|--------------------3----|


                                                                               
-------------------------|-------------------------|--------------------------|
-------------------------|-------------------------|--------------------------|
--3--3--3--3--3--3-------|--2--2--2--2--2--2-------|--------------------------|
--------------------3----|--------------------3----|--5--5--5--5--5--5--5--5--|


                                                                               
-------------------------|-------------------------|--------------------------|
-------------------------|-------------------------|--------------------------|
-----------3--3--3--5----|--7----7--7--7--7--7--7--|--7--7--7--7--7--7--7--7--|
--5--5--5----------------|-------------------------|--------------------------|


                                                                          
------------------------|------------------------|-----------------------|
------------------------|------------------------|--3------2h-3h-2-------|
--8----8--8--8--6--3----|--8----8--8--8--6--3----|------------------3----|
------------------------|------------------------|-----------------------|


                                                                         
------------------------|--------------------------|--------------------|
------------------------|--------------------------|--------------------|
--5------5--5--5--5--5--|--5--5--5--5--5--5--5--5--|--5--------3--------|
------------------------|--------------------------|--------------------|


                                                                           
--------------------|--------------------------|--------------------------|
--------------------|--------------------------|--------------------------|
--1--------0--------|--------------------------|--------------------------|
--------------------|--3--3--3--3--3--3--3--3--|--3--3--3--3--3--3--3--3--|


                                                                               
--------------------------|------------------------|--------------------------|
--------------------------|------------------------|--------------------------|
-----------------------3--|------3--3--3--3--3--3--|--------------------------|
--3--3--3--3--3--3--3-----|------------------------|--3--3--3--3--3--3--3--3--|


                                                                       
--------------------------|---------------------|----5------8----7----|
--------------------------|----------------5----|---------------------|
--------------------------|--3------6-----------|---------------------|
--3--3--3--3--3--3--3--3--|---------------------|---------------------|


                                                      
--------------------------|--------------------------|
--------------------------|--------------------------|
--------------------------|--------------------------|
--3--3--3--3--3--3--3--3--|--3--3--3--3--3--3--3--3--|


                                                                               
--------------------------|------------------------|--------------------------|
--------------------------|------------------------|--------------------------|
-----------------------3--|------3--3--3--3--3--3--|--------------------------|
--3--3--3--3--3--3--3-----|------------------------|--3--3--3--3--3--3--3--3--|


                                                                       
--------------------------|---------------------|----5------8----7----|
--------------------------|----------------5----|---------------------|
--------------------------|--3------6-----------|---------------------|
--3--3--3--3--3--3--3--3--|---------------------|---------------------|


                                                               
--------------------|--------------------|--------------------|
--------------------|--------------------|--------------------|
--------------------|--------------------|---------------1----|
------3--------3----|------3--------3----|------3-------------|


                                                               
--------------------|--------------------|--------------------|
--------------------|--------------------|--------------------|
------3--------3----|------5--------5----|------5--------5----|
--------------------|--------------------|--------------------|


                                                               
--------------------|--------------------|--------------------|
--------------------|------5-------------|--------------------|
------5--------5----|---------------5----|--------------------|
--------------------|--------------------|------3--------3----|


                                                               
--------------------|--------------------|--------------------|
--------------------|------5-------------|---------------1----|
---------------5----|---------------1----|------3-------------|
------3-------------|--------------------|--------------------|


                                                               
--------------------|--------------------|------7-------------|
------4-------------|------7-------------|--------------------|
---------------5----|---------------5----|---------------5----|
--------------------|--------------------|--------------------|

[ Tab from: http://www.guitartabs.cc/tabs/d/deep_purple/gypsys_kiss_btab.html ]
                                                                   
--------------------|----------------------|-----------------0----|
--------------------|----------------------|---------1----3-------|
------5--------5----|--3----3------3--3----|--3-------------------|
--------------------|----------------------|----------------------|


                                                                     
----------------------|---------0------------|----------------------|
----------------------|--------------3--1----|----------------------|
--3--------3--3--3----|--3-------------------|--3--------3--3--3----|
----------------------|----------------------|----------------------|


                                                                       
-----------------0----|------------------------|-----------------0----|
---------1----3-------|------------------------|-------1----3---------|
--3-------------------|--3----3----3--3--3--3--|--3-------------------|
----------------------|------------------------|----------------------|


                                                                               
-------------------------|--------------------------|-------------------------|
--2----2--2--2--2--2--2--|--2--2--2--2--2--2--2--2--|--2----2--2--2--2--2--2--|
-------------------------|--------------------------|-------------------------|
-------------------------|--------------------------|-------------------------|


                                                                                
--------------------------|-------------------------|--------------------------|
--2--2--2--2--2--2--2--2--|--2----2--2--2--2--2--2--|--2--2--2--2--2--2--2--2--|
--------------------------|-------------------------|--------------------------|
--------------------------|-------------------------|--------------------------|


                                                                           
-------------------------|----------------------|-------------------------|
--2----2--2--2--2--2--2--|--2--2----2------2----|-------------------------|
-------------------------|----------------------|--0----0--0--0--0--0--0--|
-------------------------|----------------------|-------------------------|


                                                                                
--------------------------|-------------------------|--------------------------|
--------------------------|-------------------------|--------------------------|
--0--0--0--0--0--0--0--0--|--0----0--0--0--0--0--0--|--0--0--0--0--0--0--0--0--|
--------------------------|-------------------------|--------------------------|


                                                                             
-------------------------|-------------------------|------------------------|
-------------------------|-------------------------|---------2--2--2--2--2--|
-------------------------|-------------------------|------------------------|
--1----1--1--1--1--1--1--|--1----1--1--1--1--1--1--|--0---------------------|


                                                                               
-------------------------|-------------------------|--------------------------|
--2--2--2--2--2--0-------|-------------------------|--------------------------|
--------------------3----|--0----0--0--0--0--0--0--|--0--0--0--0--0--0--0--0--|
-------------------------|-------------------------|--------------------------|


                                                                               
-------------------------|--------------------------|-------------------------|
-------------------------|--------------------------|-------------------------|
--0----0--0--0--0--0--0--|--0--0--0--0--0--0--0--0--|-------------------------|
-------------------------|--------------------------|--1----1--1--1--1--1--1--|


                                                                             
-------------------------|------------------------|-------------------------|
-------------------------|---------2--2--2--2--2--|--2--2--2--2--2--2--2----|
-------------------------|------------------------|-------------------------|
--1----1--1--1--1--1--1--|--0---------------------|-------------------------|


                                                                        
-----------------------|-----------------------|-----------------------|
--0------0----0--------|--0------0----0--------|--0------0----0--------|
-----------------3--0--|-----------------3--0--|-----------------3--0--|
-----------------------|-----------------------|-----------------------|


                                                                        
----------------------|------------------------|-----------------------|
--0------0----0-------|------------------------|-----------------------|
-----------------3----|--0------0--0--0--------|--0------0----0--------|
----------------------|------------------3--0--|-----------------3--0--|


                                                                        
-----------------------|------------------------|----------------------|
-----------------------|------------------------|----------------------|
--0------0----0--------|--0------0--0--0--------|-----------------3----|
-----------------3--0--|------------------3--0--|--1------1----1-------|


                                                                     
----------------------|----------------------|----------------------|
----------------------|----------------------|----------------------|
-----------------3----|-----------------3----|-----------------3----|
--1------1----1-------|--1------1----1-------|--1------1----1-------|


                                                                     
----------------------|----------------------|----------------------|
--0------0----0-------|--0------0----0-------|--0------0----0-------|
-----------------0----|-----------------0----|-----------------0----|
----------------------|----------------------|----------------------|


                                                                             
----------------------|--------------------------|--------------------------|
--0-------------------|--------------------------|--------------------------|
-------3----1----0----|--------------------------|--------------------------|
----------------------|--3--3--3--3--3--3--3--3--|--3--3--3--3--3--3--3--3--|


                                                      
--------------------------|--------------------------|
--------------------------|--------------------------|
--------------------------|--------------------------|
--3--3--3--3--3--3--3--3--|--3--3--3--3--3--3--3--3--|


                                                      
--------------------------|--------------------------|
--------------------------|--------------------------|
--1--1--1--1--1--1--1--1--|--1--1--1--1--1--1--1--1--|
--------------------------|--------------------------|


                                                      
--------------------------|--------------------------|
--------------------------|--------------------------|
--1--1--1--1--1--1--1--1--|--------------------------|
--------------------------|--1--1--1--1--2--2--2--2--|


                                                      
--------------------------|--------------------------|
--------------------------|--------------------------|
--------------------------|--------------------------|
--3--3--3--3--3--3--3--3--|--3--3--3--3--3--3--3--3--|


                                                      
--------------------------|--------------------------|
--------------------------|--------------------------|
--------------------------|--------------------------|
--3--3--3--3--3--3--3--3--|--3--3--3--3--3--3--3--3--|


                                                      
--------------------------|--------------------------|
--------------------------|--------------------------|
--3--3--3--3--3--3--3--3--|--3--3--3--3--3--3--3--3--|
--------------------------|--------------------------|


                                                                                
--------------------------|-------------------------|--------------------------|
--------------------------|-------------------------|--------------------------|
--------------------------|-----------1--1--1--3----|--5--5--5--5--5--5--5--5--|
--3--3--3--3--3--3--3--3--|--3--3--3----------------|--------------------------|


                                                      
--------------------------|--------------------------|
--------------------------|--------------------------|
--5--5--5--5--5--5--5--5--|--------------------------|
--------------------------|--5--5--5--5--5--5--5--5--|


                                                                               
--------------------------|-------------------------|-------------------------|
--------------------------|-------------------------|-------------------------|
--------------------------|--3--3--3--3--3--3-------|--3--3--3--3--3--3-------|
--5--5--5--5--5--5--5--5--|--------------------3----|--------------------3----|


                                                                               
-------------------------|-------------------------|--------------------------|
-------------------------|-------------------------|--------------------------|
--3--3--3--3--3--3-------|--2--2--2--2--2--2-------|--------------------------|
--------------------3----|--------------------3----|--5--5--5--5--5--5--5--5--|


                                                                               
-------------------------|-------------------------|--------------------------|
-------------------------|-------------------------|--------------------------|
-----------3--3--3--5----|--7----7--7--7--7--7--7--|--7--7--7--7--7--7--7--7--|
--5--5--5----------------|-------------------------|--------------------------|


                                                                          
------------------------|------------------------|-----------------------|
------------------------|------------------------|--3------2h-3h-2-------|
--8----8--8--8--6--3----|--8----8--8--8--6--3----|------------------3----|
------------------------|------------------------|-----------------------|


                                                                      
-----------------------|----------------------|----------------------|
--0------0--0--0--0----|--0------0------------|--0------0------------|
-----------------------|--------------3--0----|------------3------3--|
-----------------------|----------------------|----------------------|


                                                                           
--------------------|--------------------------|--------------------------|
--------------------|--------------------------|--------------------------|
--1--------0--------|--------------------------|--------------------------|
--------------------|--3--3--3--3--3--3--3--3--|--3--3--3--3--3--3--3--3--|


                                                                               
--------------------------|------------------------|--------------------------|
--------------------------|------------------------|--------------------------|
-----------------------3--|------3--3--3--3--3--3--|--------------------------|
--3--3--3--3--3--3--3-----|------------------------|--3--3--3--3--3--3--3--3--|


                                                                       
--------------------------|---------------------|----5------8----7----|
--------------------------|----------------5----|---------------------|
--------------------------|--3------6-----------|---------------------|
--3--3--3--3--3--3--3--3--|---------------------|---------------------|


                                                      
--------------------------|--------------------------|
--------------------------|--------------------------|
--------------------------|--------------------------|
--3--3--3--3--3--3--3--3--|--3--3--3--3--3--3--3--3--|


                                                                               
--------------------------|------------------------|--------------------------|
--------------------------|------------------------|--------------------------|
-----------------------3--|------3--3--3--3--3--3--|--------------------------|
--3--3--3--3--3--3--3-----|------------------------|--3--3--3--3--3--3--3--3--|


                                                                       
--------------------------|---------------------|----5------8----7----|
--------------------------|----------------5----|---------------------|
--------------------------|--3------6-----------|---------------------|
--3--3--3--3--3--3--3--3--|---------------------|---------------------|


                                                      
--------------------------|--------------------------|
--------------------------|--------------------------|
--------------------------|--------------------------|
--3--3--3--3--3--3--3--3--|--3--3--3--3--3--3--3--3--|


                                                                               
--------------------------|------------------------|--------------------------|
--------------------------|------------------------|--------------------------|
-----------------------3--|------3--3--3--3--3--3--|--------------------------|
--3--3--3--3--3--3--3-----|------------------------|--3--3--3--3--3--3--3--3--|


                                                                       
--------------------------|---------------------|----5------8----7----|
--------------------------|----------------5----|---------------------|
--------------------------|--3------6-----------|---------------------|
--3--3--3--3--3--3--3--3--|---------------------|---------------------|


                                                      
--------------------------|--------------------------|
--------------------------|--------------------------|
--------------------------|--------------------------|
--3--3--3--3--3--3--3--3--|--3--3--3--3--3--3--3--3--|


                                                                               
--------------------------|------------------------|--------------------------|
--------------------------|------------------------|--------------------------|
-----------------------3--|------3--3--3--3--3--3--|--------------------------|
--3--3--3--3--3--3--3-----|------------------------|--3--3--3--3--3--3--3--3--|


                                                                       
--------------------------|---------------------|----5------8----7----|
--------------------------|----------------5----|---------------------|
--------------------------|--3------6-----------|---------------------|
--3--3--3--3--3--3--3--3--|---------------------|---------------------|


                                                      
--------------------------|--------------------------|
--------------------------|--------------------------|
--------------------------|--------------------------|
--3--3--3--3--3--3--3--3--|--3--3--3--3--3--3--3--3--|


                                                                               
--------------------------|------------------------|--------------------------|
--------------------------|------------------------|--------------------------|
-----------------------3--|------3--3--3--3--3--3--|--------------------------|
--3--3--3--3--3--3--3-----|------------------------|--3--3--3--3--3--3--3--3--|


                                                                       
--------------------------|---------------------|----5------8----7----|
--------------------------|----------------5----|---------------------|
--------------------------|--3------6-----------|---------------------|
--3--3--3--3--3--3--3--3--|---------------------|---------------------|


                                                      
--------------------------|--------------------------|
--------------------------|--------------------------|
--------------------------|--------------------------|
--3--3--3--3--3--3--3--3--|--3--3--3--3--3--3--3--3--|


                                                                               
--------------------------|------------------------|--------------------------|
--------------------------|------------------------|--------------------------|
-----------------------3--|------3--3--3--3--3--3--|--------------------------|
--3--3--3--3--3--3--3-----|------------------------|--3--3--3--3--3--3--3--3--|


                                                                       
--------------------------|---------------------|----5------8----7----|
--------------------------|----------------5----|---------------------|
--------------------------|--3------6-----------|---------------------|
--3--3--3--3--3--3--3--3--|---------------------|---------------------|


                                                      
--------------------------|--------------------------|
--------------------------|--------------------------|
--------------------------|--------------------------|
--3--3--3--3--3--3--3--3--|--3--3--3--3--3--3--3--3--|


                                                                               
--------------------------|------------------------|--------------------------|
--------------------------|------------------------|--------------------------|
-----------------------3--|------3--3--3--3--3--3--|--------------------------|
--3--3--3--3--3--3--3-----|------------------------|--3--3--3--3--3--3--3--3--|


                                                                       
--------------------------|---------------------|----5------8----7----|
--------------------------|----------------5----|---------------------|
--------------------------|--3------6-----------|---------------------|
--3--3--3--3--3--3--3--3--|---------------------|---------------------|


                                                      
--------------------------|--------------------------|
--------------------------|--------------------------|
--------------------------|--------------------------|
--3--3--3--3--3--3--3--3--|--3--3--3--3--3--3--3--3--|


                                                                               
--------------------------|------------------------|--------------------------|
--------------------------|------------------------|--------------------------|
-----------------------3--|------3--3--3--3--3--3--|--------------------------|
--3--3--3--3--3--3--3-----|------------------------|--3--3--3--3--3--3--3--3--|


                                                                        
--------------------------|---------------------|----5------8----7----||
--------------------------|----------------5----|---------------------||
--------------------------|--3------6-----------|---------------------||
--3--3--3--3--3--3--3--3--|---------------------|---------------------||
Comments