Deep Purple - Fireball Chords & Tabs

 

Fireball Chords & Tabs

Deep Purple Chords & Tabs

Version: 1 Type: Tab 0 ratings
1 star 2 stars 3 stars 4 stars 5 stars
comments

Fireball Tab

   
Gtr I (E A D G B E)

  Fast Rock Q=242
 4/4
  Gtr I
  E  E  E  E  E  E  E  E     E  E  E  E  E  E  E
|-------------------------|-------------------------|
|-------------------------|-------------------------|
|-------------------------|-------------------------|
|-------------------------|-------------------------|
|-------------------------|--------------5----------|
|-5h=7--7--7--7--7--7--7--|--7--7--7--7-----7--5----|


  E  E  E  E  E  E  E  E    E  E  E  E     E  E  E  E
|-------------------------|-------------|--------------|
|-------------------------|-------------|--------------|
|-------------------------|-------------|--------------|
|-------------------------|-------------|--------------|
|-------------------------|-5-----------|--------------|
|-5h=7--7--7--7--7--7--7--|----7--5--7--|--5h=7--7--7--|


  E  E  E  E    E  E  E  E  E  E  E     E  E  E  E  E
|-------------|-----------------------|----------------|
|-------------|-----------------------|----------------|
|-------------|-----------------------|----------------|
|-------------|-----------------------|----------------|
|-------------|-------------5---------|----------------|
|-7--7--7--7--|-7--7--7--7-----7--5---|-5h=7--7--7--7--|


  E E E   E E E E E E E E   E E E E E E E   E E E E E E E E   E E E E E E E E
|-------|-----------------|---------------|-----------------|------------------|
|-------|-----------------|---------------|-----------------|------------------|
|-------|-----------------|---------------|-----------------|------------------|
|-------|-----------------|---------------|-----------------|------------------|
|-------|-----------------|---------5-----|-----------------|-5----------------|
|-7-7-7-|-5h7-7-7-7-7-7-7-|-7-7-7-7---7-5-|-5h7-7-7-7-7-7-7-|---7-5-7-5h7-7-7--|


  E   E       E  E  E    E    E   E         E   E
|---------|------------|------0---0-|-----|--------|
|---------|------------|------0---0-|-----|--------|
|---------|------------|------1---1-|-----|-----4--|
|---------|------------|------------|-----|-----4--|
|---------|---4--5--7--|------------|-----|-2------|
|-5---5---|------------|-0----------|-----|--------|


                         PM------------------------------|
  E    E  E     E        E E E E E E E E   E E E E E E E E
|-------------|-2------|-----------------|------------------|
|-2----2--2---|-2------|-----------------|------------------|
|-3----3--3---|-3------|-----------------|------------------|
|-4----4--4---|--------|-----------------|------------------|
|-4----4--4---|--------|-----------------|------------------|
|-2----2--2---|--------|-0-0-0-0-0-0-0-0-|-0-0-0-0-0-0-0-0--|

[ Tab from: http://www.guitartabs.cc/tabs/d/deep_purple/fireball_tab.html ]
  PM---------------------------------------------------------------|
  E E E E E E E E   E E E E E E E E    E E E E E E E E   E E E E E E E
|-----------------|-----------------|------------------|---------------|
|-----------------|-----------------|------------------|---------------|
|-----------------|-----------------|------------------|---------------|
|-----------------|-----------------|------------------|---------------|
|-2-4-4-4-4-4-4-4-|-4-4-4-4-4-4-4-4-|--3-3-3-3-3-3-3-3-|-3-3-3-3-3-3-3-|
|-----------------|-----------------|------------------|---------------|


  PM------------------------------------------------------------------|
  E E E E E E E E   E E E E E E E E   E E E E E E E E   E E E E E E E E
|-----------------|-----------------|-----------------|-----------------|
|-----------------|-----------------|-----------------|-----------------|
|-----------------|-----------------|-----------------|-----------------|
|-----------------|-----------------|-----------------|-----------------|
|---------2-2-2-2-|-3-3-3-3-4-4-4-4-|-5-5-5-5-5-5-5-5-|-5-5-5-5-5-5-5-5-|
|-3-3-3-3---------|-----------------|-----------------|-----------------|


  E
|--------|----|
|--------|----|
|--------|----|
|-4------|----|
|-4------|----|
|-2------|----|


Duration Legend
---------------
W - whole; H - half; Q - quarter; E - 8th; S - 16th; T - 32nd; X - 64th; a - acciaccatura
+ - note tied to previous; . - note dotted; .. - note double dotted
Uncapitalized letters represent notes that are staccato (1/2 duration)
Irregular groupings are notated above the duration line
Duration letters will always appear directly above the note/fret number it represents the
duration for.  Duration letters with no fret number below them represent rests.  Multi-
bar rests are notated in the form Wxn, where n is the number of bars to rest for.  Low
melody durations appear below the staff

Tablature Legend
----------------
 h   - hammer-on
 p   - pull-off
 b   - bend
 pb  - pre-bend
 r   - bend release (if no number after the r, then release immediately)
 /\  - slide into or out of (from/to "nowhere")
 s   - legato slide
 S   - shift slide
  - natural harmonic
[n]  - artificial harmonic
n(n) - tapped harmonic
 ~   - vibrato
 tr  - trill
 T   - tap
 TP  - trem. picking
 PM  - palm muting
\n/  - tremolo bar dip; n = amount to dip
 \n  - tremolo bar down
 n/  - tremolo bar up
/n\  - tremolo bar inverted dip
 =   - hold bend; also acts as connecting device for hammers/pulls
 <>  - volume swell (louder/softer)
 x   - on rhythm slash represents muted slash
 o   - on rhythm slash represents single note slash

Misc Legend
-----------
 |  - bar
||  - double bar
||o - repeat start
o|| - repeat end
*|  - double bar (ending)
 :  - bar (freetime)
 $  - Segno
 &  - Coda
Tempo markers -  = BPM(8/16=s8/s16), where s8 = swing 8ths, s16 = swing 16ths


***************************************************************************************
* Generated using Power Tab Editor by Brad Larsen - http://powertab.guitarnetwork.org *
***************************************************************************************

--------------------------------------------------------------------------------
This is most of the tab repeat if need too.
Comments