Deep Purple - Burn Chords & Tabs

 

Burn Chords & Tabs

Deep Purple Chords & Tabs

Version: 1 Type: Bass Tab 0 ratings
1 star 2 stars 3 stars 4 stars 5 stars
comments

Burn Bass Tab

   
Note 1: 
I've just tabbed the riffs of the song. Just join these riffs together 
by listening it.

Note 2:
These are the basic lines. Feel free to improvise wherever you can
(hear the live version to see what I mean...!)

Intro

G|------|
D|------|
A|--->--|
E|---3--|

Riff 1

G|---------------------------------------------|
D|---------------------------------------------|
A|---------------------------------------------|
E|--3-333-33-13-33-33-13-3333-333--1-11--------|

Verse

G|---------------------------------------------|
D|---------------------------------------------|
A|--------------------------------3-3--3-3-----|
E|--3-3--3-3--1-1--1-1--3-3--3-3---------------|


+ Riff 1

G|----------------------------------------|
D|----------------------------------------|
A|--------------------------------1----3--|
E|--3-3--3-3--1-1--1-1--3-3--3-3-----1----|

+ Riff 1

Chorus

G|-------------------------------------------------------|
D|------------------1-11-11-1-11-11----------------------|
A|----------------------------------3-33-33-3-33-33------|
E|-3-33-33-3-33-33---------------------------------------|

Riff 2

G|---------------------------------------------------------------------------|
D|-------------------------------3-2------------------------.-.-.-.-.-.-.-.--|
A|--5-55-55-55-1-11-11-11--3--5-------0-00-00-00-1-11-11-11-5-5-5-5-5-5-5-5--|
E|---------------------------------------------------------------------------|

Solo Riff

G|---------------------------------------------|
D|---------------------------------------------|
A|--------------------------------3-3--3-3-----|
E|--3-3--3-3--1-1--1-1--3-3--3-3---------------|

G|---------------------------------------------|
D|---------------------------------------------|
A|--------------------------------3-3--3-3-----|
E|--3-3--3-3--1-1--1-1--3-3--3-3---------------|

G|-------------------------------------------------|
D|-1-11-11-11------------1-11-11-11----------------|
A|-----------------------------------5-55-55-55----|
E|------------3-33-33-33---------------------------|
[ Tab from: http://www.guitartabs.cc/tabs/d/deep_purple/burn_btab.html ]
G|---------------------------------------------------|
D|-5-555-3---------3-333-----------------------------|
A|---------6-66-66--------6-5-55-55-6-666-5-3-33-33--|
E|---------------------------------------------------|

G|-------------|
D|-------------|
A|-5-55-55-55--|
E|-------------|

G|---------------------------------------------------|
D|-5-555-3---------3-333-----------------------------|
A|---------6-66-66--------6-5-55-55-6-666-5-3-33-33--|
E|---------------------------------------------------|

G|------------------------|
D|------------------------|
A|-5-55-55-55-55-55-55-55-|
E|------------------------|

G|-----------------------------------------|
D|-----------------------------------------|
A|-----6-6-----6-6---5-5-5-5-555-5-5-5-55--|
E|-3-3-----3-3-----------------------------|

2nd Solo Riff

G|-----------------------------------|
D|-----------------------------------|
A|-----------------------------------| x4
E|--3-33-3-3-3-33-1-11-1-1-1-11------|

G|----------------------------------------------------------|
D|----------------------------------------------------------|
A|-5-55-5-5-5-55-3-33-3-3-3-33-5-55-5-5-5-55-3-33-3-3-3-33--|
E|----------------------------------------------------------|


G|---------------------------------------------------|
D|-5-555-3---------3-333-----------------------------|
A|---------6-66-66--------6-5-55-55-6-666-5-3-33-33--|
E|---------------------------------------------------|

G|-------------|
D|-------------|
A|-5-55-55-55--|
E|-------------|

G|---------------------------------------------------|
D|-5-555-3---------3-333-----------------------------|
A|---------6-66-66--------6-5-55-55-6-666-5-3-33-33--|
E|---------------------------------------------------|

G|------------------------|
D|------------------------|
A|-5-55-55-55-55-55-55-55-|
E|------------------------|

G|-----------------------------------------|
D|-----------------------------------------|
A|-----6-6-----6-6---5-5-5-5-555-5-5-5-55--|
E|-3-3-----3-3-----------------------------|

Ending

G|----------------------------------------|
D|-------------------5--4--3--2--5--7-----|
A|-------3--1--6--5-------------------->--|
E|-3--1--------------------------------3--|
Comments