Deep Purple - Black Night Chords & Tabs

 

Black Night Chords & Tabs

Deep Purple Chords & Tabs

Version: 2 Type: Tab 0 ratings
1 star 2 stars 3 stars 4 stars 5 stars
comments

Black Night Tab

this is a great song so do it good!!!
Tab explanation
^:bend up
(15): play the note and bend it until it sounds like the 15th fret
h:hammer on

INTRO
e-------------------------------------
b-------------------------------------
g-------------------------------------
d-------------------------------------
a-777-777-555-555---------------------
e-----------------777-777-333-333-----

MAIN RIFF
e-------------------------------------------------------
b-------------------------------------------------------
g-------------------------------------------------------
d----5----------------5----7--5---------------5---------
a-7----7--5-----5--7-----7-------7--5--7---------7------
e------------7---------------------------------------x2 on each chorus

VERSES
e---------------------------------------------
b---------------------------------------------
g---------------------------------------------
d---------------------------------------------
a-5--7------7-----7-----7--5--7-----7---------
e-------0-----0-----0-----------0-----0-------x6 for three verses

BEGINING OF CHORUS
e--------------------------------------------------------
b--------------------------------------------------------
g--------------------------------------------------------
d----------------------------------------7--5-7-5-7-5-5--
a-7--5-----7-----7--9--7--5--7--5------------------------
e-------7-----7--------------------7--5------------------
[ Tab from: http://www.guitartabs.cc/tabs/d/deep_purple/black_night_tab_ver_2.html ]
e-----------------------------------------------------------
b-----------------------------------------------------------
g------------------------------------12----12-14--12-12--12-
d-7--------------------------------12---14------------------
a-------5-------5---3--3-----12h14--------------------------
e----------3--3-----------5---------------------------------

e----------12----------12-^---------------------------------
b--^-----12----^-----12--15-(17)----------------------------
g-14-(15)-----14-(15)---------------------------------------
d-----------------------------------------------------------
a-------------------------------------------7---5--5--------
e--------------------------------------5--5-----------7--5--

e----------------------------------------------------------
b----------------------------------------------------------
g-----------------------------4--------------4-------------
d-5-------5---3--3-----3------4--------------4-------------
a-------------------5---------2--------------2-------------
e----3--3--------------------------------------------------

e-------------------------
b-------------------------
g---4------4--------------
d---4------4--------------
a---2------2--------------
e-------------------------then you go back to the main riff
you do one more verse and then you go onto the first solo. i would do the solo for you but its too long and it would just takes ages. to get the best sound you really want a marshall amp and hav it quite bassy. C YA

                        Blackmore
Comments