Deep Purple - Black Knight Chords & Tabs

 

Black Knight Chords & Tabs

Deep Purple Chords & Tabs

Version: 1 Type: Bass Tab 0 ratings
1 star 2 stars 3 stars 4 stars 5 stars
comments

Black Knight Bass Tab

Artist: Deep Purple
Title: Black Night
Tabbed by: Magnus Lavér     

The form of the song is:Intro, riff, verse, riff, verse, guitarrsolo, 
organsolo, riff, verse, guitarsolo and the riff.


*:keep it ringing

Looks a bitt crazy?!


Intro                       
G|-9-9-9-9-9-9-9-7-7-7-7-7-7|------------------------|
D|--------------------------|-9-9-9-9-9-9-5-5-5-5-5-5|                         
A|--------------------------|------------------------|                           
E|--------------------------|------------------------| 

Riff                                                           (x2)
G|-------------|----------------|---------------|----------------|
D|---5---------|---5---7--5-----|---------------|-5--------------|
A|-7---7--5---5|-7---7-------7--|-5--7----------|---7------------|
E|----------7--|----------------|---------------|----------------| 
[ Tab from: http://www.guitartabs.cc/tabs/d/deep_purple/black_knight_btab.html ]
Verse           (x5)
G|----------------|---------------|-----------------|-----------------|-----------------|-----------------|-----------------|
D|----------------|---------------|-----------------|-----------------|-----------------|-----------------|-----------------|
A|-5-7-7-7-7-7-7-7|-7--5---5----5-|-9--7--5--7--5---|-----------------|-----------------|-----------------|--7-7-7-7-7-7-7-7|
E|----------------|------7----7---|----------------7|---5-5-5-5-5-5-5-|--3-3-3-3-3-3-3-3|--0-0-0-0-0-0-0-0|-----------------| 

G|--------------------|-----------------|-------------|---------------|
D|--------------------|-----------------|-------------|---------------|
A|--------------------|-----------------|--2*---------|---------------|
E|-----5-5-5-5-5-5-5-5|--3-3-3-3-3-3-3-3|-------------|---------------|

Guitarrsolo
                  (x2/3)
G|------------------|-------------------|------------------|
D|------------------|-------------------|------------------|
A|----5-7-7-7-7-7-7-|--7--5-----5-----5-|-9--7--5--7--5----|
E|------------------|--------7-----7----|---------------7--|

Organsolo

G|--------------------|
D|--------------------|
A|--------------------|
E|----3-5-5-5-5-5-5-5-|====
Comments