Deep Blue Something - Breakfast At Tiffanys Chords & Tabs

 

Breakfast At Tiffanys Chords & Tabs

Deep Blue Something Chords & Tabs

Version: 2 Type: Tab 0 ratings
1 star 2 stars 3 stars 4 stars 5 stars
comments

Breakfast At Tiffanys Tab

   
      CHORDS:
      EADGBE            EADGBE
   D (xx0232)    Dsus2 (xx0230)
   G (320033)    Dsus4 (xx0233)
   A (x02220)    Asus4 (x02230)
   
   RHYTHM FOR INTRO AND VERSES:
       D                       G       A
   E|--2--2-2-0-2---2-3-2-0-2--3--3-3--0--0--0-0-0-0-0---|
   B|--3--3-3-3-3---3-3-3-3-3--3--3-3--2--2--2-3-2-2-2---|
   G|--2--2-2-2-2---2-2-2-2-2--0--0-0--2--2--2-2-2-2-2---|
   D|--0--0-0-0-0---0-0-0-0-0--0--0-0--2--2--2-2-2-2-2---|
   A|--------------------------2--2-2--0--0--0-0-0-0-0---|
   E|--------------------------3--3-3--------------------|
   
   INTRO:
   D   G A  [play twice]
   
   VERSE 1:
          D
   You'll say
   G      A          D
   we got nothing in common
      G      A         D
   no common ground to start from
       G        A     D     G  A
   and we're falling apart
   
   VERSE 2:
   You'll say
   the world has come between us
   our lifes have come between us
   still I know you just don't care
   
   CHORUS:
       D                 A            G
   And I said what about Breakfast at Tiffanys?
       D                A          G
   She said I think I remember the film
          D                     A          G
   And as I recall, I think, we both kinda liked it
       D                       A               G
   And I said, well that's the one thing we've got
   
   After the chorus comes this:
           D             G     A     D    G  A
   E|-------------------------------------|
   B|-------------------------------------|
   G|-------------------------------------|
   D|--5-5-5--4--2----------------2-------|
   A|---------------5----2--5--4-----5----|
   E|-------------------------------------|
   
   
   VERSE 3:
   I see you,
   the only one who knew me
   but now your eyes see through me
   I guess I was wrong
   
   VERSE 4:
   So what now?
   It's plain to see we're over
   and I hate when things are over
   when so much is left undone
   
   CHORUS:
   And I said what about Breakfast at Tiffany’s?
   She said I think I remember the film
   And as I recall, I think, we both kinda liked it
   And I said, well that's the one thing we've got
   
   REPEAT VERSE 1
   REPEAT VERSE 2
   REPEAT CHORUS
   
   GUITAR-SOLO:
           D             G     A     D     G     A
   E|------------------------------------------------
   B|------------------------------------------------
   G|------------------------------------------------
   D|--5-5-5--4--2----------------2------------------
   A|---------------5----2--5--4-----5-----2---2-4---
   E|----------------------------------------3-------
   
           D             G     A     D     G     A
   E------------------------------------------------|
   B---8-8-8--7--5--3-------3--2--5--3--------------|
   G---------------------4-----------------4-0-4-6--|
   D------------------------------------------------|
   A------------------------------------------------|
   E------------------------------------------------|
   
   REPEAT CHORUS TWICE
   
   OUTRO:
            D             G     A     D     G     A
   E|------------------------------------------------
   B|---8-8-8--7--5--3-------3--2--5--3--------------
   G|---------------------4-----------------4-0-4-6--
   D|------------------------------------------------
   A|------------------------------------------------
   E|------------------------------------------------
   
           D             G     A     D     G     A     D
   E------------------------------------------------|
   B---8-8-8--7--5--3-------3--2--5--3--------------|
   G---------------------4-----------------4-0-4-6--|
   D------------------------------------------------|
   A------------------------------------------------|
   E------------------------------------------------

not so sure about the solos though
[ Tab from: http://www.guitartabs.cc/tabs/d/deep_blue_something/breakfast_at_tiffanys_tab_ver_2.html ]
Comments