Deejay Alice - Better Off Alone Chords & Tabs

 

Better Off Alone Chords & Tabs

Deejay Alice Chords & Tabs

Version: 1 Type: Tab 0 ratings
1 star 2 stars 3 stars 4 stars 5 stars
comments

Better Off Alone Tab

   
Song: Better Off Alone
Artist: Alice Deejay
Album: Who Needs Guitars Anyway?         (ironic huh)
TABer: Matt Wuensche (my first tab)

For the trance/dance fans.

(fyi: alice deejay playes this using the Sawtooth wave on an electric keyboard)

---
lyrics -
  do you think you're better off alone
  talk to me.. oooooo talk to me
---

**************  begin ********


  [--repeat 2x--]

e-|---- --------
B-|-12- -----12- 
G-|---- -13----- 
D-|---- -------- 
A-|---- -------- 
E-|---- -------- 
                                                                     

(then)

   
e-|------------
B-|-12--12-----
G-|---------13-
D-|------------
A-|------------
E-|------------


  [--repeat 2x--------------------------------------]

e-|-14--14--11---------------12--12--11-------------|----------------
B-|-------------12--12-------------------12--12-----|-12--12--11-----
G-|---------------------13-----------------------13-|-------------11-
D-|-------------------------------------------------|----------------
A-|-------------------------------------------------|----------------
E-|-------------------------------------------------|----------------

    
>> MAIN RIFF

  [--repeat 9x----------------------------------------------------------------------]

   (part a)                                 (part b)
e-|-14--14--11-------------------------------12--12--11-----------------------------
B-|-------------12--12------12--12--11-------------------12--12------12--12--11-----
G-|---------------------13--------------11----------------------13---------------11-
D-|---------------------------------------------------------------------------------
A-|---------------------------------------------------------------------------------
E-|---------------------------------------------------------------------------------

[ Tab from: http://www.guitartabs.cc/tabs/d/deejay_alice/better_off_alone_tab.html ]
(play 'part a' again once, then)


e-|-12--12--11-
B-|------------
G-|------------
D-|------------
A-|------------
E-|------------


(a bunch of cool stuff (solo??) which wont/cant be tabbed here, then)


e-|----------------------------
B-|-12--12------12--12--11-----
G-|---------13--------------11-
D-|----------------------------
A-|----------------------------
E-|----------------------------


(play MAIN RIFF here once, then)

                                       * short pause here
e-|-14--14--11----------------------11-  -----12--12--11-----------------------------
B-|-------------12--12------12---------  -----------------12--12------12--12--11-----
G-|---------------------13------11-----  -11----------------------13--------------11-
D-|------------------------------------  --------------------------------------------
A-|------------------------------------  --------------------------------------------
E-|------------------------------------  --------------------------------------------


(play MAIN RIFF x6, then)


e-|------------------------------------12--12------------------------------------
B-|--------12--12------12--12--11---------------12--12------12--12--11-----------
G-|-8--8-----------13--------------11-------------------13--------------11--8--8-
D-|------------------------------------------------------------------------------
A-|------------------------------------------------------------------------------
E-|------------------------------------------------------------------------------

                                        * last note is a drum beat
e-|-----------------------------12--11-----
B-|-12--12------12--12--11--------------12-
G-|---------13--------------11-------------
D-|----------------------------------------
A-|----------------------------------------
E-|----------------------------------------


**************  end   ********
Comments