Decoy - Front Row Chords & Tabs

 

Front Row Chords & Tabs

Decoy Chords & Tabs

Version: 1 Type: Bass Tab 0 ratings
1 star 2 stars 3 stars 4 stars 5 stars
comments

Front Row Bass Tab

               song:       front row 
               artist:     decoy



intro/verses/solo: 

G:-----------------------------75--------
D:-------------------------------75------
A:--7-77-777----------5-55-555-----75----
E:-----------5-55-555----------------85--

pre chorus:

G:-------------------------------------
D:-------------------------------------
A:----------1-11-111---------3-33-333--
E:-1-11-111----------1-11-111----------

Chorus:

G:----5---------34543------------------------
D:-----------345----------5---------34543----
A:--3---3-345--------------------345---------
E:----------------------3---3-345------------
[ Tab from: http://www.guitartabs.cc/tabs/d/decoy/front_row_btab.html ]
G:----3--------12321-------------------------
D:----------123---------3---------12321------
A:--1--1-123-------------------123-----------
E:--------------------1---1-123--------------

Outro

G:----5------------------3-----------------
D:--------------5-----------------3--------
A:--3---3-345-----------1--1-123-----------   x2
E:------------3---3-345----------1--1-123--

A:-------------3+++----
E:---010101010----------


order

intro       x 2
verse       x 5
pre chorus  x 2
chorus      x 2
verse       x 5
pre chorus  x 2
chorus      x 2
solo        x 4
verse       x 5
chorus      x 2
outro       x 1

 This is 100% correct



Comments