Decemberists - Legionnaires Lament Chords & Tabs

 

Legionnaires Lament Chords & Tabs

Decemberists Chords & Tabs

Version: 1 Type: Tab 0 ratings
1 star 2 stars 3 stars 4 stars 5 stars
comments

Legionnaires Lament Tab

   
-------------------------------------------------------------------------------
			     Legionnaire's lament - The decemberist
-------------------------------------------------------------------------------
Tabbed by: MinasTirith
Email: minastirith@emai.it

http://www.decemberists.com/

Vers Chord
D - F - G - A# - A

Chorus Chord

A\F - C - GM - LA#  -|-  A\F - C - Gm - LA# - LA#m


A\F
E|-5
B|-6
G|-5
D|-7
A|-8
E|-5


Riff at 31 sec

e|--------------------------------|
B|--------------------------------|
G|--------------------------------|
D|----7-------3-7--------7--------|
A|-5-8--5----3---3----5-8--5------|
E|--------------------------------|

39 sec
e|---------------------------------|
B|---------------------------------|
G|---------------------------------|
D|-8-8-7-7-5-5-------------------7-|
A|------------8-8-7-7-5-5-3-3-5-5--|
E|---------------------------------|

then reapeat


Riff at 1:28
[ Tab from: http://www.guitartabs.cc/tabs/d/decemberists/legionnaires_lament_tab.html ]
E|-5----5--5-3--5--3------3-5-6-6-5-3--3-6-6s10--------------------|
B|---6-8------6-----6-1-1----------------------11-10-10-10---------|
G|---------------------------------------------------------12-10-7-|
D|-----------------------------------------------------------------|
A|-----------------------------------------------------------------|
E|-----------------------------------------------------------------|

Riff at 2:55 first part


E|--1-3s5---1-5--1-3s5--3-1-----1-3-5-6-6-5-3--3-5s10-----------------------|
B|-3-------3----3-----------1--1----------------------11-8-10-10-10---------|
G|------------------------------------------------------------------12-10-7-|
D|--------------------------------------------------------------------------|
A|--------------------------------------------------------------------------|
E|--------------------------------------------------------------------------|


Riff at 3:09 second part


E|----------------------------------------------------10------------------|
B|-----10--10-8--10-8---------6-8-10-11-11-10-8--8-10---11-10-10-10-8-----|
G|-7-10--------10----10-5--5-7---------------------------------------10-5-|
D|------------------------------------------------------------------------|
A|------------------------------------------------------------------------|
E|------------------------------------------------------------------------|

Final part 3:54 it's like the voice in the chorus but the final (at 3:43) it's bit different
so play only the first part of this riff until B|5-3

E|---10-8-6-5-3-3-3--5-3----3-3-3-5-6-5-3-1--5-6-3-1---|
B|-10-------------------5-3----------------3---------3-|
G|-----------------------------------------------------|
D|-----------------------------------------------------|
A|-----------------------------------------------------|
E|-----------------------------------------------------|
Comments