Decemberists - Clementine Chords & Tabs

 

Clementine Chords & Tabs

Decemberists Chords & Tabs

Version: 1 Type: Tab 0 ratings
1 star 2 stars 3 stars 4 stars 5 stars
comments

Clementine Tab

   
TABBED BY: Martin Buckley
Tab: Clementine
Artist: Decemberists
Album: Castaways and Cutouts

My first tab, please be gentle. i think this is right, but if you have any corrections,
please contact me: Citixen12@yahoo.com

Intro:
e-3---7-5-3-0-3-|
B-3-----------3-|
G-0-----------0-|x2
D-0-----------2-|
A-2-----------3-|
E-3-----------0-|
[ Tab from: http://www.guitartabs.cc/tabs/d/decemberists/clementine_tab.html ]
verse:
e-3-7-5-3-0-3---3-7-5-3-0-3---3-7-5-3-8-7-5-7-3-7-5-3-0-3--|
B-3-----------3-3-----------3-3---------------3-----------3|
G-0-------------0-------------0---------------0------------|
D-0-------------0-------------0---------------0------------|
A-2-------------2-------------2---------------2------------|
E-3-------------3-------------3---------------3------------|


Chorus:
Chords used:
 C=x32010
Em=022000
 A=002220
 D=000232
      C
So we got in your car 
        Em
With our kickabout hearts 
       A                         D
And we hollared out 'sweet clementine'

check my "legionnaire's lamment" outro accordian guitar tabs coming soon.
Comments