December Suicide - Waiting Room Chords & Tabs

 

Waiting Room Chords & Tabs

December Suicide Chords & Tabs

Version: 1 Type: Tab 0 ratings
1 star 2 stars 3 stars 4 stars 5 stars
comments

Waiting Room Tab

   
Band: December suicide
Song: The Waiting Room

tabber: John Cukras
email: riffreaper@yahoo.com

tuning: normal

Riff 1: / = pick slide  A                B
E------------------------------|---------------------------------------------------------|
B------------------------------|---------------------------------------------------------|
G------------------------------|---------------------------------------------------------|
D-77777-5-33333----------7-----|-777777-555555-333333---------77777--55555--33333--------|
A-55555-3-11111-7--------5-----|-555555-333333-111111-777777--55555--33333--11111--55555-|
E---------------5 x's 6------/-|----------------------555555-----------------------33333-|
[ Tab from: http://www.guitartabs.cc/tabs/d/december_suicide/waiting_room_tab.html ]
Riff 2:  A                                 B
E--------------------------------------|--------------------------|
B--------------------------------------|--------------------------|
G--------------------------------------|--------------------------|
D-7777777-555555-3333333---------------|-7-5-3----7-10-12---------|
A-5555555-333333-1111111-5555555-------|-5-3-1-5--5-8--10---------|
E------------------------3333333 x's 4-|-------3----------0000000-|
pm                                                        .......

Riff 3:
E-------------------------|
B-------------------------|
G-------------------------|
D-77-7-55-5-33-3----------|
A-55-5-33-3-11-1-55-------|
E----------------33 x's 4-|

Riff 1: B

Riff 2

Riff 3

Riff 4:
E--------------------------------------------------|
B--------------------------------------------------|
G--------------------------------------------------|
D-7-5-3-----------------77------55------33---------|
A-5-3-1----7----7-------55------33------11-------7-|
E-------00-5-00-5--0000----0000----0000----00000-5-|
pm      ..   ..    ....    ....    ....    .....

Riff 2: A x's 2

Riff 3 x's 8
Comments