December Suicide - Amandas Diary Chords & Tabs

 

Amandas Diary Chords & Tabs

December Suicide Chords & Tabs

Version: 1 Type: Tab 0 ratings
1 star 2 stars 3 stars 4 stars 5 stars
comments

Amandas Diary Tab

   
Band: December Suicide
song: Amanda's Diary

tabber: John Cukras
email: riffreaper@yahoo.com

Tuning: normal

Riff 1:  A                     B
E-----------------------|-------------------------------|
B-----------------------|-------------------------------|
G---------------2-------|-------------------22222-------|
D-------------4-2-------|-------------44444-22222-------|
A-55555-99999-2-0-------|-55555-99999-22222-00000-------|
E-33333-77777---- x's 2-|-33333-77777------------ x's 2-|

Riff 2:
E----------------------------------------|
B----------------------------------------|
G----------------------------------------|
D-2--------------------------------------|
A-2--------5-5-5--7--------9-12-10-------|
E-0-000000-3-3-3--5-000000-7-10-8- x's 4-|
pm  ......          ......
[ Tab from: http://www.guitartabs.cc/tabs/d/december_suicide/amandas_diary_tab.html ]
Riff 3:
E--------------------------------------------|
B--------------------------------------------|
G-------999-777-888--------------------------|
D-99999--------------------555-222-444-------|
A--------------------55555-------------------|
E------------------------------------- x's 4-|

Riff 1: B

Riff 2

Riff 3

Riff 4:
E---------------------------------------------------------------------------|
B---------------------------------------------------------------------------|
G---------------------------------------------------------------------------|
D-11-11111-77-77777-55-55555-4-----11-11111-77-77777-55-555555-4------------|
A-99-99999-55-55555-33-33333-2-2~--99-99999-55-55555-33-333333-2------------|
E----------------------------------------------------------------0000000000-|
pm                                                               ..........

Riff 3

Outro:
E---------------|
B---------------|
G-4--7/4/5--7/4-|
D-2--5/2/3--5/2-|
A---------------|
E---------------|
Comments