December By Chance - Enkindels Chords & Tabs

 

Enkindels Chords & Tabs

December By Chance Chords & Tabs

Version: 2 Type: Tab 0 ratings
1 star 2 stars 3 stars 4 stars 5 stars
comments

Enkindels Tab

#-----------------------------------------------------------------------------#
#-- File created with Instab - http://www.pconline.com/~smcarey/instab.html --#
#-----------------------------------------------------------------------------#

Author/Artist: The Enkindels
Title: December by Chance
Album: can't stop the enkindels
Transcribed by: Paul Payne
Email: ginafi@eboarding.net

I did this tab just because there wasn't one on the net that I could find and its one of my favorite 
 Infact i couldn't find any enkindels tabs on the net so if you have any others or you want me to tab any of 
give me an e-mail - ginafi@eboarding.net

-------------3---------4--------4---------------------------------------------|
-6----------------------------------------------------------------------------|
---8--8--------8---8-----8---8----8---8--x4-----------------------------------|
----8------------8---------8--------8-----------------------------------------|
------------------------------------------------------------------------------|
------------------------------------------------------------------------------|
 00:00 - 00:30 first guitar  - clean (listen to song for rythm)

------------------------------------------------------------------------------|
------------------------------------------------------------------------------|
------------------------------------------------------------------------------|
------------------------------------------------------------------------------|
-8-8-9---9--8--8-8-9--9-9-----------------------------------------------------|
------------------------------------------------------------------------------|
 00:11 - 00:30 second guitar - clean (listen to song for rythm

------------------------------------------------------------------------------|
-6-6--3-3--4-4----------------------------------------------------------------|
-8-8--5-5--6-6----x4----------------------------------------------------------|
-8-8--5-5--6-6----------------------------------------------------------------|
------------------------------------------------------------------------------|
------------------------------------------------------------------------------|
 00:30 - 00:54 first guitar - distorted     verse

------------------------------------------------------------------------------|
-6-x-x-x-x-x---3-x-x-x-x-x--4-x-x-x-x-x-x-x-x-x-x-x---------------------------|
-8-x-x-x-x-x---5-x-x-x-x-x--6-x-x-x-x-x-x-x-x-x-x-x---x2----------------------|
-8-x-x-x-x-x---5-x-x-x-x-x--6-x-x-x-x-x-x-x-x-x-x-x---------------------------|
------------------------------------------------------------------------------|
------------------------------------------------------------------------------|
 00:54 - 1:02  first guitar distorted        verse
[ Tab from: http://www.guitartabs.cc/tabs/d/december_by_chance/enkindels_tab_ver_2.html ]
------------------------------------------------------------------------------|
-6-6----3-3--44---------------------------------------------------------------|
-8-8----5-5--66----x2---------------------------------------------------------|
-8-8----5-5--66---------------------------------------------------------------|
------------------------------------------------------------------------------|
------------------------------------------------------------------------------|
 1:02 - 1:11 first guitar distorted           verse

-------1-1--3-3--4-4---------------1-1--4-------------------------------------|
-6-6---3-3--5-5--6-6---x3----6-6---3-3--6-------------------------------------|
-8-8---3-3--5-5--6-6---------8-8---3-3--6----x1-------------------------------|
-8-8-------------------------8-8----------------------------------------------|
------------------------------------------------------------------------------|
------------------------------------------------------------------------------|
 1:11 - 1:31 first guitar distorted            chorus

------------------------------------------------------------------------------|
------------------------------------------------------------------------------|
------------------------------------------------------------------------------|
------------------------------------------------------------------------------|
------------------------------------------------------------------------------|
------------------------------------------------------------------------------|
 Now repeat the verse parts and the chours parts then comes this part

------------------------------------------------------------------------------|
-3-3--1-1--4-4-4----3-3--6-6--4-4-4--------1-1---4-4--------------------------|
-5-5--3-3--6-6-6----5-5--8-8--6-6-6----x2--3-3---6-6--x2----------------------|
-5-5--3-3--6-6-6----5-5--8-8--6-6-6--------3-3---6-6--------------------------|
------------------------------------------------------------------------------|
------------------------------------------------------------------------------|
 2:20 - 2:52  first guitar distorted            birdge

------------------------------------------------------------------------------|
------------------------------------------------------------------------------|
-----8--------------------------------------------------8---------------------|
---8---8---x2-----------------------------------------8---8-x2----------------|
-8--------------88888888-999999999-88888888-999999--8-------------------------|
------------------------------------------------------------------------------|
 2:20 - 2:52 second guitar distorted listen to know where to play

------------------------------------------------------------------------------|
------------------------------------------------------------------------------|
------------------------------------------------------------------------------|
------------------------------------------------------------------------------|
------------------------------------------------------------------------------|
------------------------------------------------------------------------------|
 Then just repeat the chorus and the into and thats it - yay :) moomoo
Comments