Decay - Rescue Me Chords & Tabs

 

Rescue Me Chords & Tabs

Decay Chords & Tabs

Version: 1 Type: Tab 0 ratings
1 star 2 stars 3 stars 4 stars 5 stars
comments

Rescue Me Tab

-------------------------------------------------------------------------------
			   Rescue Me - Decay
-------------------------------------------------------------------------------
Tabbed by:Chris
Email:maddman126

USA

Tuning:Standard

Verse 1

e|-----------------------------------------------------------
B|-----------------------------------------------------------
G|-3-3-3-3---------5-5-5-------------------------------------
D|-3-3-3-3-5-5-5-5-5-5-5--3r---x-x-x-------------------------
A|-1-1-1-1-5-5-5-5-3-3-3--3r---x-x-x-------------------------
E|---------3-3-3-3--------1r---x-x-x-------------------------

                                                             X4 
[ Tab from: http://www.guitartabs.cc/tabs/d/decay/rescue_me_tab.html ]
e|-----------------------------------------------------------
B|-----------------------------------------------------------
G|-3-3-3-3---------5---5-------------------------------------
D|-3-3-3-3-5-5-5-5-5-5-5-5--3----3r---x-x-x------------------
A|-1-1-1-1-5-5-5-5-3-5-3-5--3----3r---x-x-x------------------
E|---------3-3-3-3---3---3--1----1r---x-x-x------------------
-

Verse 2
e|-----------------------------------------------------------
B|-----------------------------------------------------------
G|-----------------------------------------------------------
D|-----------------------------------------------------------       X8
A|---------9---10---9---10----x-x-x-x------------------------
E|-7-7-7-7---7----7---7-------x-x-x-x------------------------

Solo

e|---------------------------------------------------------------------------
B|---------------------------------------------------------------------------
G|---------------------------------------------------------------------------
D|------3---------3b-------3-5-7-7-5-3-5-3-------3---------3b-------3--------
A|--3-5---5-3-3-5----5-3-5-----------------5-3-5---5-3-3-5----5-3-5---5------
E|----------------------------------------------------------------------4-2-1

Order:

Verse 1
Verse 2
Verse 2
Solo
Verse 1
Comments