Decay - Bottom Of Your Heart Chords & Tabs

 

Bottom Of Your Heart Chords & Tabs

Decay Chords & Tabs

Version: 2 Type: Tab 0 ratings
1 star 2 stars 3 stars 4 stars 5 stars
comments

Bottom Of Your Heart Tab

Tabbed By:Chris
Email: maddman126@aol.com

Tuning:Standard

In:US of A
Genre:Rock
Members:Chris(me), Evan, Shane, Chris D.

Guitar 1

e|------------------------------------------------------------------
B|------------------------------------------------------------------
G|------------------------------------------------------------------ X8
D|-4--4-4-4-4--6--7--7-7-7-7--6--2--2-2-2-2--4--2-0-2---------------
A|-4--4-4-4-4--6--7--7-7-7-7--6--2--2-2-2-2--4--2-0-2---------------
E|-2--2-2-2-2--4--5--5-5-5-5--4--0--0-0-0-0--2--0-0-0---------------


Guitar 2
[ Tab from: http://www.guitartabs.cc/tabs/d/decay/bottom_of_your_heart_tab_ver_2.html ]
e|------------------------------------------------------------------
B|------------------------------------------------------------------
G|------------------------------------------------------------------ X8
D|------------------------------------------------------------------
A|------------------------------------------------------------------
E|-----5-5--3r---5-5---1--0-0---3-----------------------------------


Guitar 1

e|-----------------------------------------------------------------
B|-----------------------------------------------------------------
G|-----------------------------------------------------------------
D|--4-4-2--4-4-2--4-4-2--6-7-6-2r----------------------------------
A|--4-4-2--4-4-2--4-4-2--6-7-6-2r----------------------------------
E|--2-2-0--2-2-0--2-2-0--4-5-4-0r----------------------------------


Guitar 2

e|-----------------------------------------------------------------
B|-----------------------------------------------------------------
G|-----------------------------------------------------------------
D|-----------------------------------------------------------------
A|-------------3-2-0-----------------------------------------------
E|-0-2-0-3-2-0-----------------------------------------------------
Comments