Decapitated - Fury Chords & Tabs

 

Fury Chords & Tabs

Decapitated Chords & Tabs

Version: 1 Type: Tab 0 ratings
1 star 2 stars 3 stars 4 stars 5 stars
comments

Fury Tab

   
Decapitated-The Fury
From: The Negation (2004)
On: Earache Records

C# Tuning

K....here are all the riffs....I tabbed out the first part of the guitar solo
(before it picks up tempo), aswell.

|-----------------------|
|-----------------------|
|-----------------------|
|----------------7/6-7--|
|4-3-----7-6-----5/4-5--|
|2-1-000-5-4-000--------|
     ***     ***

|-----------------------------------|
|-----------------------------------|
|-----------------------------------|
|--------------------------7-7/6-7--|
|2-------------------------5-5/4-5--|
|0-444-111-444-111-444-111----------|
   *** *** *** *** *** ***

|-------------------------|
|-------------------------|
|-------------------------|
|----------------7-7/6-7--|
|4-3-----7-6-----5-5/4-5--|
|2-1-000-5-4-000----------|
     ***     ***

|---------------------------------|
|---------------------------------|
|---------------------------------|
|----------------------------6/7--|
|2-------------------------2-4/5--|
|0-444-111-444-111-444-111-0------|
   *** *** *** *** *** ***

|---------------------------------|
|---------------------------------|
|---------------------------------|
|------------------------2--------|
|------------------------2--------|
|000-000-333-333-222-111-0--------|
 *** *** *** *** *** ***

|-----------------------------------------|
|-----------------------------------------|
|-----------------------------------------|
|------------------------2----------------|
|7~~~~~~~----------------2--------7~~~~~~~|
|--------333-333-222-111-0----------------|
         *** *** *** ***
[ Tab from: http://www.guitartabs.cc/tabs/d/decapitated/fury_tab.html ]
|--------------------------------------------------------------------|
|--------------------------------------------------------------------|
|--------------------------------------------------------------------|
|---------10---------10-----9----------9-10-------------------------2|
|---------8----------8------7----------7-8--------------------------2|
|00000000---00000000---0000---00000000-----00000000-333-333-222-111-0|
 ********   ********   ****   ********     ******** *** *** *** ***

|--------------------------------|
|--------------------------------|
|--------------------------------|
|------------------------------3-|
|2-2--2-5/4/3-2-2--2-5/4/3-3/5-1-|
|0-0--0-3/2/1-0-0--0-3/2/1-1/3---|
 * *  *       * *  *

|------------------------------|
|------------------------------|
|------------------------------|
|-----------------99---------88|
|4---------3------77---------66|
|2-0-0-0-0-1---------000-000---|
   * * * *           *** ***

|-------------------|
|-------------------|
|-------------------|
|------------2------|
|3-3---------2------|
|1-1-000-000-0------|
     *** ***

^That's all the riffs in the song^

The song structure (order the riffs come in) is really easy to figure out.

Here's the first part of the guitar solo:

|----------------------------------------------|
|----------------------------------------------|
|7~~~~~~~~6~~~~~~~~5^^^-5~~~~~~~~-8^^^-7h8~~~~~|
|----------------------------------------------|
|----------------------------------------------|
|----------------------------------------------|
                   PH             PH

Notation:
* = Palm Mute
/ = Slide
~ = Vibrato
^ = Bend String
PH = Pinch Harmonic
h = Hammer On
Comments