Deathstars - Cyanide Chords & Tabs

 

Cyanide Chords & Tabs

Deathstars Chords & Tabs

Version: 1 Type: Tab

Cyanide Tab

Song: Cyanide
Artist: Deathstars
Album: Termination Bliss
Tabbed by: leftygtrplr
Tuning: Standard
This song is pretty simple, mostly power cords. And don’t forget the metal distortion, 
it doesn’t sound quite right without it. Gain is ok, but metal distortion sounds better.
. =Staccato (take the pressure off of strings as soon as you strum)
{} =pick scrap(i.e. {15~0} you would pick scrape from 15 to 0)

Time: 0:16-0:32
E|-------------------------------------------------|Play 2X
A|-------------------------------------------------|
D|-------------------------------------------------|
G|-------------------------------------------------|
B|-3-3---3-3---3-3---3-3---5-5---5-5---3-3---3-3---|
e|-1-1---1-1---1-1---1-1---3-3---3-3---1-1---1-1---|
   . .   . .   . .   . .   . .   . .   . .   .

Time: 0:33-0:46
Just listen for how long to rest for here:
E|--------------------------------------------------------|
A|--------------------------------------------------------|
D|--------------------------------------------------------|
G|--------------------------------------------------------|
B|-{15~0}-4----532---4--5----2/5\3---532----4--5---2/5----|
e|-{15~0}-2----532---2--3----2/5\3---532----2--3---2/5----|
                                                     .


Rest for a while, then:
Time: 1:1-1:16
E|-----------| Play twice
A|-----------|
D|-----------|
G|-----------|
B|-3----5—4--|
e|-1----3—2--|

Time: 1:19-1:35
E|----------------------------------------------------|
A|----------------------------------------------------|
D|----------------------------------------------------|
G|----------------------------------------------------|
B|-{15~0}-4----532--4--5--2/5\3---532----4--5---2/5---|
e|-{15~0}-2----532--2--3--2/5\3---532----2--3---2/5---|
                                                  .

Time: 1:49-2:05
E|----------| Play twice
A|----------|
D|----------|
G|----------|
B|-3----5—4-|
e|-1----3—2-|
[ Tab from: http://www.guitartabs.cc/tabs/d/deathstars/cyanide_tab.html ]
Time: 2:09-2:22
E|--------------------------------------------------|
A|--------------------------------------------------|
D|--------------------------------------------------|
G|--------------------------------------------------|
B|-{15~0}-4----532--4--5--2/5\3---532----4--5-------|
e|-{15~0}-2----532--2--3--2/5\3---532----2--3-------|

Time: 2:23-2:39
E|-----------------------------------------------|
A|-----------------------------------------------|
D|-----------------------------------------------|
G|-----------------------------------------------|
B|-2/5\3---532--4--5--2/5\3---532—----4--5---2/5-|
e|-2/5\3---532--2--3--2/5\3---532—----2--3---2/5-|

Time: 2:40-2:54
E|--------------------------------------------|Play 2x
A|--------------------------------------------|
D|--------------------------------------------|
G|--------------------------------------------|
B|3-3---3-3---4-4---4-4----4-4---4-5-4-3—-X-3-|
e|1-1---1-1---2-2---2-2—---2-2---2-3-2-1—-X-1-|
  . .   . .   . .   .      . .   . . . .

Time: 2:55-3:08
E|-------------------------------------------------|Play 2X
A|-------------------------------------------------|
D|-------------------------------------------------|
G|-------------------------------------------------|
B|-3-3---3-3---3-3---3-3---5-5---5-5---3-3---3-3---|
e|-1-1---1-1---1-1---1-1---3-3---3-3---1-1---1-1---|
   . .   . .   . .   . .   . .   . .   . .   .

Time: 3:09-3:23
E|----------------------------------------------------|
A|----------------------------------------------------|
D|----------------------------------------------------|
G|-{22~0~22}------------------------------------------|
B|-{22~0~22}-4----532---4--5----2/5\3---532---4--5----|
e|-----------2----532---2—-3----2/5\3---532---2--3----|

Time: 3:24-3:39
E|-----------------------------------------------|
A|-----------------------------------------------|
D|-----------------------------------------------|
G|-----------------------------------------------|
B|2/5\3----532---4--5----2/5\3---532---4--5---2/4|
e|2/5\3----532---2--3----2/5\3---532---2--3---2/2|

Time: 3:40-3:44
E|-------------------------------------------------------|
A|-------------------------------------------------------|
D|-------------------------------------------------------|
G|-------------------------------------------------------|
B|-4-4---4-5-4-3--X-3--4---------------------------------|
e|-2-2---2-3-2-1--X-1--2---------------------------------|
   . .   . . . .       .(after about a beat)

Any questions, email me at nightmarebeforechristmas1@hotmail.com
ENJOY!
www.deathstars.net