Death In Vegas - Dirge Chords & Tabs

 

Dirge Chords & Tabs

Death In Vegas Chords & Tabs

Version: 1 Type: Bass Tab 0 ratings
1 star 2 stars 3 stars 4 stars 5 stars
comments

Dirge Bass Tab

   
----------------------------------------------------------------------------
			     DIRGE - Death In Vegas
----------------------------------------------------------------------------

Tabbed By : Stephen Healy
e-mail: steeeeeve13@hotmail.com

Tuning: Dropped D  DADG

Hi guys thought it was about time someone posted a bass tab for this brilliant song

Its just one riff over and over again, nothing fancy here
[ Tab from: http://www.guitartabs.cc/tabs/d/death_in_vegas/dirge_btab.html ]
G|------------------------------------------------------------------------|
D|------------------------------------------------------------------------|
A|-----2-1--2-1-2-----2-1--2-1-2-----7-6--7-6-7-----7-6--7-6-7------------|
D|-1-1------------1-1------------6-6------------6-6-----------------------|

G|------------------------------------------------------------------------|
D|------------------------------------------------------------------------|
A|-----2-1--2-1-2-----2-1--2-1-2-----7-6--7-6-7-----7-6--7-6-7------------|
D|-1-1------------1-1------------6-6------------6-6-----------------------|

...and so on and so on and so on...

| /  slide up
| \  slide down
| h  hammer-on
| p  pull-off
| ~  vibrato
| +  harmonic
| x  Mute note
============================================================================
Comments