Death From Above 1979 - Turn It Out Chords & Tabs

 

Turn It Out Chords & Tabs

Death From Above 1979 Chords & Tabs

Version: 1 Type: Bass Tab 0 ratings
1 star 2 stars 3 stars 4 stars 5 stars
comments

Turn It Out Bass Tab

This tab is for everyone who is sick and tired of tuning their bass to that
wierd DGCF crap just to play a few DFA 1979 songs that are transcribed wrong
anyways.  Enjoy!

Song: Turn it Out
Artist: Death From Above 1979
Album: You're a Woman I'm A Machine

Tuning: Standard EADG

Intro-  (I dont know how to make the wierd noise.  Improvise!)

-----------------------------------------------|
-----------------------------------------------|
---333----------333--------333--------333------|  x2
-----------------------------------------------|

-------888------777------555-------555---------|
-----------------------------------------------|
--333-------333------333------333--------------|  x4
-----------------------------------------------|

Verse
-------8-10-8-----787--------575-----575-------|
-----------------------------------------------|
--333---------333-------333-----333------------|  x4
-----------------------------------------------|
"Be there for you someday, soon......"

Bridge 1
-----8h10--8h10--8h10--8h10--|
-----------------------------|
--88-----88----88------88----| x2
-----------------------------|

-------888------777------555-------555---------|
-----------------------------------------------|
--333-------333------333------333--------------|  x2
-----------------------------------------------|

Back To Verse


Then To Bridge 2
[ Tab from: http://www.guitartabs.cc/tabs/d/death_from_above_1979/turn_it_out_btab.html ]
-----8h10--8h10--8h10--8h10--------------------------|
-----------------------------     ---------\---------|
--88-----88----88----88------ x2---------------------|            \
-----------------------------------------------------|                \
                                              -------| Play Twice
---3h5--3h5--3h5--3h5--------------------------------|                /
-----------------------------------------------------|               /
-33--33--33--33-------------- x2  -------------------|
-----------------------------------------------------|

--------------------------------------|
-----------------------------66666666-|
-6666666666666666-111111111-----------|
--------------------------------------|
"Oooohh, we'll take the time, take the time to turn it out..."

Outro-  (Pretty ,much the same old riffs)

-------888------777------555-------555---------|
-----------------------------------------------|
--333-------333------333------333--------------|  x2
-----------------------------------------------|

-------8-10-8-----787--------575-----575-------|
-----------------------------------------------|
--333---------333-------333-----333------------|  x4
-----------------------------------------------|

-----------------------------------------------|
-----------------------------------------------|
---333----------333--------333--------333------|  x2
-----------------------------------------------|

--------------------------------------------------|
--------------------------------------------------|
---3\---------------------------------------------|
--------------------------------------------------|

Finished!
Comments