Death From Above 1979 - Sexy Results Chords & Tabs

 

Sexy Results Chords & Tabs

Death From Above 1979 Chords & Tabs

Version: 1 Type: Bass Tab 0 ratings
1 star 2 stars 3 stars 4 stars 5 stars
comments

Sexy Results Bass Tab

Band: Death From Above 1979
Song: Sexy Results
Bassist: Jesse F.Keeler
Tabber: Mike Slobodian

*=Scratch.
/=Slide up.
h=Hold on

Intro:
G[----------]
D[------7-7-]
A[-5-5-5----]
E[----------]

Verse Riff:
G[---------------------------]
D[----5h7---------5h7--------]
A[-------------------5--3----]
E[-3h5---3h5---3h5----5--3---]

Chorus:
G[-----/17-17-17-17-17-17-17-17-17-17-17-17--]
D[-------------------------------------------]
A[-------------------------------------------]
E[-3h5---------------------------------------]
[ Tab from: http://www.guitartabs.cc/tabs/d/death_from_above_1979/sexy_results_btab.html ]
G[-----/16-16-16-16-16-16-16-16-16-16-16-16--]
D[-------------------------------------------]
A[-------------------------------------------]
E[-3h5---------------------------------------]

G[-----/17-17-17-17-17-17-17-17-17-17-17-17--]
D[-------------------------------------------]
A[-------------------------------------------]
E[-3h5---------------------------------------]

G[-----/16-16-16-16-16-16-16-16-16-16-16-16--]
D[-------------------------------------------]
A[-------------------------------------------]
E[-3h5---------------------------------------]

"Soloesgue"Riff:
G[--------------------------------------]
D[--------------------------------------]
A[--------------------------------------]
E[-3h5-*-3h5-3-*-3h5--------------------]
Comments