Death From Above 1979 - Romantic Rights Chords & Tabs

 

Romantic Rights Chords & Tabs

Death From Above 1979 Chords & Tabs

Version: 1 Type: Tab 0 ratings
1 star 2 stars 3 stars 4 stars 5 stars
comments

Romantic Rights Tab

is it punk? we dont really know, but its good.

tuning-standard-EADGBe

/ or \=slide

Intro-i have no clue whats goin on for this, what i think sounds close though is to hit
the frets with the pick as you slide, it kinda makes no sense but you'll catch on once 
get the point.

1-----------------------------|
2-----------------------------|
3-----------------------------|
4-----------------------------|
5----10/13\10\----------------|
6--3/---------1/3-------------|

verse
[ Tab from: http://www.guitartabs.cc/tabs/d/death_from_above_1979/romantic_rights_tab.html ]
1-------------------------------|
2-------------------------------|
3---------5-3-------------------|
4---------3-1-3---2-3-----------|
5-5-5-3-5-----1-5-0-1-----------|
6-3-3-1-3-------3---------------|

Chorus

1----------------------------|
2----------------------------|
3----------------------------|
4-55555-----55555-1-2--------|
5-33333-0-1-33333------------|
6----------------------------|

Bridge 1

1-------------------------------|
2-------------------------------|
3-------------------------------|
4------------------------8------|
5------10-7-8-------10-7-6------|
6-6-8--8--5-6--6-8--8--5--------|

Bridge 2

1-------------------------------|
2-------------------------------|
3-------------------------------|
4-10-10-10-10-10-10-7-8---------|
5-10-10-10-10-10-10-7-8---------|
6-8--8--8--8--8--8--5-6---------|

thanx

peace out
Comments