Death From Above 1979 - Romantic Rights Chords & Tabs

 

Romantic Rights Chords & Tabs

Death From Above 1979 Chords & Tabs

Version: 2 Type: Bass Tab 0 ratings
1 star 2 stars 3 stars 4 stars 5 stars
comments

Romantic Rights Bass Tab

x=pick scrape
intro
G:--------------------------------------------------------------------------|
D:--------------------------------------------------------------------------|
A:--------------------------------------------------------------------------|
E:0-xxxx-0-xxxx-------------------------------------------------------------|
[ Tab from: http://www.guitartabs.cc/tabs/d/death_from_above_1979/romantic_rights_btab_ver_2.html ]
this is verse(play till it goes to part three)
G:--------------------------------------------------------------------------|
D:--------------------------------------------------------------------------|
A:---------8-6--------------------------------------------------------------|
E:3-3-1-3-------3-3-5-6-----------------------------------------------------|
3rd part(after you do this twice it goes to the verse)
G:-------------8-9--------------9-8-----------------------------------------|
D:-----7-8--------------7-8-------------------------------------------------|
A:--------------------------------------------------------------------------|
E:88888---88888----88888---88888--------------------------------------------|
after the verse goes the bridge
G------------------8b-------------------------------------------------------|
D:---8-7-8------8-7---------------------------------------------------------|
A:--------------------------------------------------------------------------|
E:6-8-----6-6-8-------------------------------------------------------------|
after you played the bridge 2 times you play this on the 3rd time
G:----------------8-10h8-10h----------------8b------------------------------|
D:---8-7-8-----8-7-------------8-7-8-----8-7--------------------------------|
A:--------------------------------------------------------------------------|
E:6-8-----6-6-8-------------6-8-----6-6-8-----------------------------------|

then comes the lats part
G:--------------------------------------------------------------------------|
D:--------------------------------------------------------------------------|
A:3-3-3-3-3-3-3-------------------------------------------------------------|
E:--------------0-6s--------------------------------------------------------|
 s = slide down in tone

thats the end folks
Comments