Death From Above 1979 - Romantic Rights Chords & Tabs

 

Romantic Rights Chords & Tabs

Death From Above 1979 Chords & Tabs

Version: 1 Type: Bass Tab 0 ratings
1 star 2 stars 3 stars 4 stars 5 stars
comments

Romantic Rights Bass Tab

Romantic Rights
Death From Above 1979
You're a Woman, I'm a Machine

Tabbed By: J-Son V-1 (Viva_La_Sperle@hotmail.com)

Tuning: Standard
Effects: Use of synth, mild distortions, heavy bass, and low flange

Intro
G|--------------------------------------------------------------------------|
D|--------------------------------*-*-*-*-*-*---*-*-*-*-*-*-----------------|
A|-0-*-*-*-*-*-*--0-*-*-*-*-*---0-------------0-----------------------------|
E|--------------------------------------------------------------------------|

G|---*-*-*-*-*----*-*-*-*-*-------------------------------------------------|
D|----------------------------*-*-*-*-*----*-*-*-*-*------------------------|
A|-0------------0-----------0------------0----------------------------------|
E|--------------------------------------------------------------------------|

G|--------------------------------------------------------------------------|
D|--------------------------------------------------------------------------|
A|-0-*-*-*-*-*-*--0-*-*-*-*-*-----------------------------------------------|
E|--------------------------------------------------------------------------|


Main
G|--------------------------------------------------------------------------|
D|-----------5-3----------------------5-3-----------------------------------|
A|---------------5-0-2-3-------------------5-0-2-3--------------------------|
E|--5-5-3-5------------------5-5-3-5----------------------------------------|
[ Tab from: http://www.guitartabs.cc/tabs/d/death_from_above_1979/romantic_rights_btab.html ]
G|-----------------------------------------------5--------------------------|
D|----------5-3-----------------------5-3-----------------------------------|
A|--------------5-0-2-3--------------------5-0-2----------------------------|
E|--5-5-3-5------------------5-5-3-5----------------------------------------|


Bridge (First Time)
G|--------------------------------------------------------------------------|
D|------------2---2--------------3---3--------------------------------------|
A|--3-3-3-3-3---3------3-3-3-3-3---2----------------------------------------|
E|--------------------------------------------------------------------------|


Bridge (Second Time)
G|--------------------------------------------------------------------------|
D|------------2---3--------------2---3--------------------------------------|
A|--3-3-3-3-3---3------3-3-3-3-3---3----------------------------------------|
E|--------------------------------------------------------------------------|

Pre Outro
G|--------------------------------------------------------------------------|
D|---------------------------------13----------------------------------13---|
A|--0-12--13-12-13-----0-12--13-12-------0 12--13-12-13----0-12--13-12------|
E|--------------------------------------------------------------------------|

Outro
G|--------------------------------------------------------------------------|
D|--------------------------------------------------------------------------|
A|--0-12--15-15-15--0-10/12----0-12--15-15-15--0-10/12--------0-0-----------|
E|--------------------------------------------------------------------------|

Theres nothing else to say, listin to the song and it's very easy to figure out.
(Death From Above 1979 kicks ass)
| *  scratch
| /  slide up
=============================================================================
Comments