Death From Above 1979 - Cold War Chords & Tabs

 

Cold War Chords & Tabs

Death From Above 1979 Chords & Tabs

Version: 2 Type: Bass Tab 0 ratings
1 star 2 stars 3 stars 4 stars 5 stars
comments

Cold War Bass Tab

   
-----------------------------------------------------------------------------
		    Cold War  - Death From Above 1979
-----------------------------------------------------------------------------

Tabbed By : LifeFromBelow79


Tuning: Standard

Hey, this is my second DFA tab, once again with proper tuning.
Please Rate and Enjoy!  Also check out my tab for Turn it Out.

Intro

G|-12\-0000-10-10-------------------8-8--------------------------------------|
D|----------------8-8-7-7-10-10----------------------------------------------|
A|------------------------------8-8------------------------------------------|
E|---------------------------------------------------------------------------|

G|-----0000-10-10--------------------10h12--------------------------------|
D|----------------8-8-7-7-10-10-------------------------------------------|
A|------------------------------8-8---------------------------------------|
E|------------------------------------------------------------------------|

G|-----0000-10-10-------------------8-8--------------------------------------|
D|----------------8-8-7-7-10-10----------------------------------------------|
A|------------------------------8-8------------------------------------------|
E|---------------------------------------------------------------------------|

G|-----0000-10-10------------------12h14----------------------------------|
D|----------------8-8-7-7-10-10-------------------------------------------|
A|------------------------------8-8---------------------------------------|
E|------------------------------------------------------------------------|

Repeat above twice for intro and twice for verse except last time, last line play...
[ Tab from: http://www.guitartabs.cc/tabs/d/death_from_above_1979/cold_war_btab_ver_2.html ]
G|-----0000-10-10----------------------------------------------------------|
D|----------------8-8-7-7-10-10--------------------------------------------|
A|------------------------------8-8----------------------------------------|
E|-------------------------------------------------------------------------|

Chorus
G|---5-7-7777-3-5-5555-----------------------|
D|---------------------3-5-555555555555------|
A|-------------------------------------------| x 4
E|-------------------------------------------|

G|---5-7---8-10---12-14---3-5------------------|
D|----------------------------3-5-555555555555-|
A|---------------------------------------------|
E|---------------------------------------------|
Play above line four times, except third time play...

G|---5-7---8-10---12-14--15-17-----------------|
D|----------------------------3-5-555555555555-|
A|---------------------------------------------|
E|---------------------------------------------|

Then play intro twice.

Then play chorus.

Outro
G|--0-10-10-10--------------8------|
D|-------------8-7-7-10------------|
A|----------------------8-8--------|
E|---------------------------------|

G|0-0-10-10-10--------------12------|
D|-------------8-7-7-10-------------|
A|----------------------8-8---------|
E|----------------------------------|

G|0-0-10-10-10--------------8------|
D|-------------8-7-7-10------------|
A|----------------------8-8--------|
E|---------------------------------|

G|0-0-10-10-10--------------14------|
D|-------------8-7-7-10-------------|
A|----------------------8-8---------|
E|----------------------------------|

Play twice but last time, last line play

G|0-0-10-10-10--------------12-0---|
D|-------------8-7-7-10------------|
A|----------------------8-8--------|
E|---------------------------------|


| /  slide up
| \  slide down
| h  hammer-on
| p  pull-off
| ~  vibrato
| +  harmonic
| x  Mute note
=============================================================================
Comments