Death From Above 1979 - Blood On Our Hands Chords & Tabs

 

Blood On Our Hands Chords & Tabs

Death From Above 1979 Chords & Tabs

Version: 5 Type: Bass Tab

Blood On Our Hands Bass Tab

   
This is what i get from the song by listening to it over and over again. There are very
subtle things that the bassist does in the song, and I think I caught most of them. I'll
write it so it is east to understand.
I do it in drop D BUT I'll write it in STANDARD TUNING (E-a-d-g).

->-> = slide up
<-<- = slide down

G-------------------------------------------------------------------|
D-------------------------------------------------------------------|
A--101010-10<-<---------------121212-12<-<------13-13---151515-15---|
E-------------------3--3--3-----------------------------------------|

G-------------------------------------------------------------------|
D-------------------------------------------------------151515-15---|
A--101010-10<-<-----3--3--3---121212-12<-<------13-13---------------|
E-------------------------------------------------------------------|

G-----------15--14--12--14--10-10-12-12-10-|
D------------------------------------------|
A-101010-10--------------------------------|
E------------------------------------------|

G-----------15--14--12-----10-10-12-------|
D-----------------------------------10----|
A-121212-12------------13-----------------|
E-----------------------------------------|

G-----------15--14--12--14--10-10-12-12-10-|
D------------------------------------------|
A-101010-10--------------------------------|
E------------------------------------------|

G-----------15--14--12------10-10-12-1210-|
D-----------------------------------------|
A-121212-12-------------13----------------|
E-----------------------------------------|

G-------------------------------------------------------------------|
D-------------------------------------------------------------------|
A--101010-10<-<---------------121212-12<-<------13-13---151515-15---|
E-------------------3--3--3-----------------------------------------|

G-------------------------------------------------------------------|
D-------------------------------------------------------151515-15---|
A--101010-10<-<-----3--3--3---121212-12<-<------13-13---------------|
E-------------------------------------------------------------------|

G-----------15--14--12--14--10-10-12-12-10-|
D------------------------------------------|
A-101010-10--------------------------------|
E------------------------------------------|

G-----------15--14--12-----10-10-12-------|
D-----------------------------------10----|
A-121212-12------------13-----------------|
E-----------------------------------------|

G-----------15--14--12--14--10-10-12-12-10-|
D------------------------------------------|
A-101010-10--------------------------------|
E------------------------------------------|

G-----------15--14--12-----10-10-12-------|
D-----------------------------------10----|
A-121212-12------------13-----------------|
E-----------------------------------------|

G-----------15--14--12--14--10-10-12-12-10-|
D------------------------------------------|
A-101010-10--------------------------------|
E------------------------------------------|

G-----------15--14--12-----10-10-12-------|
D-----------------------------------10----|
A-121212-12------------13-----------------|
E-----------------------------------------|

G-----------15--14--12--14--10-10-12-12-10-|
D------------------------------------------|
A-101010-10--------------------------------|
E------------------------------------------|
[ Tab from: http://www.guitartabs.cc/tabs/d/death_from_above_1979/blood_on_our_hands_btab_ver_5.html ]
G-----------15--14--12-----10-10-12-------|
D-----------------------------------10----|
A-121212-12------------13-----------------|
E-----------------------------------------|

G-------------------------------------------------|
D-------------------------------------------------|
A-------------------------------------------------|
E-11-11-11-11-11-11-11-11-11-11-11-11-11-13-13----|-<

G------------------------------------|
D------------------------------------|
A------------------------------------|
E-8-8-8-8-8-8-8-8-8-8-8-8-8-10-10-10-|

G-------------------------------------------------|
D-------------------------------------------------|
A-------------------------------------------------|
E-11-11-11-11-11-11-11-11-11-11-11-11-11-13-13----|-<

G------------------------------------|
D------------------------------------|
A------------------------------------|
E-8-8-8-8-8-8-8-8-8-8-8-8-8-10-10-10-|

G-------------------------------------------------|
D-------13-13-------11-11-------10-10-------------|
A----------------------------------------13-13----|-<
E-11-11-------11-11-------11-11-------11----------|

G--------------------------------------|
D-----10-10-----8-8-----7-7------------|
A-----------------------------10-10----|-<
E-8-8-------8-8-----8-8-----8----------|

G-------------------------------------------------|
D-------13-13-------11-11-------10-10-------------|
A----------------------------------------13-13----|-<
E-11-11-------11-11-------11-11-------11----------|

G-----------------------------------|
D-----10-10-----8-8-----7-7---------|
A---------------------------8-10----|
E-8-8-------8-8-----8-8----------8--|

G-------------------------------------------------------------------|
D-------------------------------------------------------------------|
A--101010-10<-<---------------121212-12<-<------13-13---151515-15---|
E-------------------3--3--3-----------------------------------------|

G-------------------------------------------------------------------|
D-------------------------------------------------------151515-15---|
A--101010-10<-<-----3--3--3---121212-12<-<------13-13---------------|
E-------------------------------------------------------------------|

G-----------15--14--12--14--10-10-12-12-10-|
D------------------------------------------|
A-101010-10--------------------------------|
E------------------------------------------|

G-----------15--14--12-----10-10-12-------|
D-----------------------------------10----|
A-121212-12------------13-----------------|
E-----------------------------------------|

G-----------15--14--12--14--10-10-12-12-10-|
D------------------------------------------|
A-101010-10--------------------------------|
E------------------------------------------|

G-----------15--14--12-----10-10-12-------|
D-----------------------------------10----|
A-121212-12------------13-----------------|
E-----------------------------------------|

G-----------15--14--12--14--10-10-12-12-10-|
D------------------------------------------|
A-101010-10--------------------------------|
E------------------------------------------|

G-----------15--14--12-----10-10-12-------|
D-----------------------------------10----|
A-121212-12------------13-----------------|
E-----------------------------------------|

G-----------15--14--12--14--10-10-12-12-10-|
D------------------------------------------|
A-101010-10--------------------------------|
E------------------------------------------|

G-----------15--14--12-----10-10-12--------|
D-----------------------------------10-----|
A-121212-12------------13---------------10-|
E------------------------------------------|

FIN!