Death From Above 1979 - Blood On Our Hands Chords & Tabs

 

Blood On Our Hands Chords & Tabs

Death From Above 1979 Chords & Tabs

Version: 3 Type: Bass Tab 0 ratings
1 star 2 stars 3 stars 4 stars 5 stars
comments

Blood On Our Hands Bass Tab

Tis me again, and this is a good tab, it sounds like it, the rest of these peoples tabs
are wrong, why?  Because at the beginning they think that JFK plays a note really fast
5 times, then he plays the same note 4 more times slowly, but no!  If you listen to the
song, and listen carefully, you will be able to here that the second 4 notes slowly are
deeper.  But anyways, enough of me ranting on about other peoples horrible tabs, here's
blood on our hands.


Intro/Verse

|-------------------------------------------------------------|
|-----------------------------------------88888-1010101010----|
|--10101010/--------------1212121212/-------------------------|
|-----------------3-3-3-3-------------------------------------|

|-----------------------------------------------1010101010----|
|-----------------------------------------88888---------------|
|--10101010/--------------1212121212/-------------------------|
|-----------------3-3-3-3-------------------------------------|

Chorus

|-------------15-14-12-14-10-10h12-12p10---|
|------------------------------------------|
|--1010101010------------------------------|
|------------------------------------------|
[ Tab from: http://www.guitartabs.cc/tabs/d/death_from_above_1979/blood_on_our_hands_btab_ver_3.html ]
|-------------15-14-12---------------------|
|-------------------------15-15h17-17------|
|--1212121212----------13------------------|
|------------------------------------------|

Bridge

|------------------------------------------------------|
|------------------------------------------------------|
|------------------------------------------------------|
|--66-66-66-66-66-66-8-8-8---33-33-33-33-33-33-5-5-5---|

|------8-8-----6-6-----5-5-----------|
|----------------------------8-8-8---|
|--6-6-----6-6-----6-6-----6---------|
|------------------------------------|

|-------------------------------------|
|------10-10-----8-8-----7-7----------|
|--------------------------------10---|
|--8-8-------8-8-----8-8-----8-8------|

Second Time You Play It It's Like This

|------8-8-----6-6-----5-5-----------|
|----------------------------8-8-8---|
|--6-6-----6-6-----6-6-----6---------|
|------------------------------------|

|-------------------------------------|
|------10-10-----8-8-----7-7----------|
|------------------------------10-0---|
|--8-8-------8-8-----8-8-----8--------|

Not much difference between the two, but whatever.  If you have comments, send them to
take_it_away9@hotmail.com.  This tab is what I think is right, if you think it's wrong,
check your tuning or check your ears.
Comments