Death From Above 1979 - Blood On Our Hands Chords & Tabs

 

Blood On Our Hands Chords & Tabs

Death From Above 1979 Chords & Tabs

Version: 2 Type: Bass Tab 0 ratings
1 star 2 stars 3 stars 4 stars 5 stars
comments

Blood On Our Hands Bass Tab

   
Song: Blood On Our Hands
Band: Death From Above 1979
Album: You're A Woman, Im a Machine
Bassist: Jesse F. Keeler
Tabber: Ricardo Pereda

Dropped D tuning (D-A-D-G)


Symbols

/= slide down
h= hammer on
*= stacatto / accent note
p= pull off
//______\\= really fast., hear the song carefully to get the point.

intro/
Verse
                * * * * 
|---------------------------------------------------------|
|-5-5-5-5-5-/---5-5-5-5/7-7-7-7-7-/---7-8---10-10-10-10---| 
|---------------------------------------------------------|
|---------------------------------------------------------|
                * * * *                                     
|------------------------------------------10-10-10-10---||
|-5-5-5-5-5-/---5-5-5-5/7-7-7-7-7-/---7-8-----------------|
|---------------------------------------------------------|
|---------------------------------------------------------|

main riff/chorus

|-----------15-14-12-14--10-10h12p10-----------15-14-12---10-10h12p10----|
|-5-5-5-5-5--------------------------7-7-7-7-7---------------------------|
|------------------------------------------------------12----------------|
|------------------------------------------------------------------------|x2

2nd verse
                * * * * 
|---------------------------------------------------------|
|-5-5-5-5-5-/---5-5-5-5/7-7-7-7-7-/---7-8---10-10-10-10---|
|---------------------------------------------------------|
|---------------------------------------------------------|
                * * * *
|------------------------------------------10-10-10-10---||
|-5-5-5-5-5-/---5-5-5-5/7-7-7-7-7-/---7-8-----------------|
|---------------------------------------------------------|
|---------------------------------------------------------|
 
chorus
|-----------15-14-12-14--10-10h12p10-----------15-14-12---10-10h12p10----|
|-5-5-5-5-5--------------------------7-7-7-7-7---------------------------|
|------------------------------------------------------12----------------|
|------------------------------------------------------------------------|x4
[ Tab from: http://www.guitartabs.cc/tabs/d/death_from_above_1979/blood_on_our_hands_btab_ver_2.html ]
Interlude
  * * * * * * * * * * * * * * * * * * * * * * * * * * * * * * * 
-----------------------------------------------------------------|
|----------------------------------------------------------------|
|-6-6-6-6-6-6-6-6-6-6-6-6-6-8-8-/-3-3-3-3-3-3-3-3-3-3-3-3-3-5-5--|
|----------------------------------------------------------------|x2

                                    //________\\ 
|-------8-8-8-------6-6-6-------5-5--5--5-5/(3)-|
|-----------------------------------------------|
|-6-6-6-------6-6-6-------6-6-6-----6-----------|
|-----------------------------------------------|

|------5-5-5-------3-3-3------2-2-2------0-0-0-|
|----------------------------------------------|
|3-3-3-------3-3-3-------3-3-3------3-3-3------|
|--------------------------------------------- |x1


|-------8-8-8-------6-6-6-------5-5--5--5-5/(3)-|
|-----------------------------------------------|
|-6-6-6-------6-6-6-------6-6-6-----6-----------|
|-----------------------------------------------|

|------5-5-5-------3-3-3------2-2-2--------------|
|-----------------------------------3-3-/--5-0---|
|3-3-3-------3-3-3-------3-3-3-------------------|
|------------------------------------------------|x1
                                 

Verse
                * * * *
|---------------------------------------------------------|
|-5-5-5-5-5-/---5-5-5-5/7-7-7-7-7-/---7-8---10-10-10-10---|
|---------------------------------------------------------|
|---------------------------------------------------------|
                * * * *
|------------------------------------------10-10-10-10----|
|-5-5-5-5-5-/---5-5-5-5/7-7-7-7-7-/---7-8-----------------|
|---------------------------------------------------------|
|---------------------------------------------------------|

chorus
|-----------15-14-12-14--10-10h12p10-----------15-14-12---10-10h12p10----|
|-5-5-5-5-5--------------------------7-7-7-7-7---------------------------|
|------------------------------------------------------12----------------|
|------------------------------------------------------------------------|x4

End Note
|----|
|-5--|
|----|
|(5)-|


great great song! any comments/ corrections please mail me irotinmyskin@gmail.com
Comments