Death From Above 1979 - Blood On Our Hands Chords & Tabs

 

Blood On Our Hands Chords & Tabs

Death From Above 1979 Chords & Tabs

Version: 1 Type: Bass Tab 0 ratings
1 star 2 stars 3 stars 4 stars 5 stars
comments

Blood On Our Hands Bass Tab

Blood on our Hands
Death From Above 1979
You're a Woman, I'm a Machine

Tabbed By: J-Son V-1 (Viva_La_Sperle@hotmail.com)

Tuning: Drop Whole Step - DGCF
Effects: Use of synth, mild distortions, heavy bass, and low flange
(I use a Digitech BP200 to create my DFA effects)


Part I
F|---------------------------------------------------------------------------|
C|-777-7-7-7--10-10-10-10-1011-1112-12-12----------------------------------|
G|---------------------------------------------------------------------------|
D|---------------------------------------------------------------------------|

Part II
F|------------17---16---14--16-----------------------------------------------|
C|--777-------------------------17-17---14-14--------------------------------|
G|---------------------------------------------------------------------------|
D|---------------------------------------------------------------------------|
   Da da da "there is blood on our-hands a-gain
[ Tab from: http://www.guitartabs.cc/tabs/d/death_from_above_1979/blood_on_our_hands_btab.html ]
F|--------------17---16---14-------------------------------------------------|
C|-10-10-10------------------------17-17---14-14-----------------------------|
G|----------------------------15---------------------------------------------|
D|---------------------------------------------------------------------------|
   Da da da    "From the bed-room is-where we-will"

Part III
F|---------------------------------------------------------------------------|
C|-9-9-9-9-9-9-9-9-9-9-9-9-9-11b---5-5-5-5-5-5-5-5-5-5-5-5-5-5-5-5-5-5-5-7-7-|
G|---------------------------------------------------------------------------|
D|---------------------------------------------------------------------------|
   B= drastic bend that makes the sound of another note

Part IV
F|-----10-----8--------------------------------------------------------------|
C|------------------12------10-----------12------10------8-----7-------------|
G|-8-8----8-8---8-8-----8-8-----------8-8-----8-8----8-8----8-8--------------|
D|---------------------------------------------------------------------------|
   1-2-3 1-2-3  1-2-3  1-2-3


Order
Past I x2
Part II x2
Part I x2
Part II x4
Part III x2
Part IV x2
Part I

Hopefully this makes it easy enough to figure out, but if you are having trouble feel free to E-mail me. 
==============================================================================
Comments