Death From Above 1979 - Black History Month Chords & Tabs

 

Black History Month Chords & Tabs

Death From Above 1979 Chords & Tabs

Version: 4 Type: Bass Tab

Black History Month Bass Tab

heyo. play the song and play along. if you find something i missed, go with it. its an 
song, really.

Death From Above 1979
"Black History Month"

intro/outro

g(---------------------------------10-10-10-10-10-10-10-)
d(------------------------------------------------------)
a(-------8h10-10-10-10-10-10-10-10----------------------)
e(--8h10------------------------------------------------)

g(---------------------------------10-10-10-10-------)
d(---------------------------------------------8-8-8-)
a(-------8h10-10-10-10-10-10-10-10-------------------)
e(--8h10---------------------------------------------) x2
(repeat to fade during outro)

verse

g(---------------------------------10-10-10-10-10-10-10-)
d(------------------------------------------------------)
a(-------8h10-10-10-10-10-10-10-10----------------------)
e(--8h10------------------------------------------------)

g(---------------------------------10-10-10-10-------)
d(---------------------------------------------8-8-8-)
a(-------8h10-10-10-10-10-10-10-10-------------------)
e(--8h10---------------------------------------------)
[ Tab from: http://www.guitartabs.cc/tabs/d/death_from_above_1979/black_history_month_btab_ver_4.html ]
g(---------------------------------10-10-10-10-10-10-10-)
d(------------------------------------------------------)
a(-------8h10-10-10-10-10-10-10-10----------------------)
e(--8h10------------------------------------------------)

g(---------------------------------8-8-8-8----------)
d(-----------------------------------------10-10-10-)
a(-------8h10-10-10-10-10-10-10-10------------------)
e(--8h10--------------------------------------------)

chorus

g(-------------------------------------------|
d(---------------------------7-7-7-----------|
a(-------8h10-10-10-10-10-10-------8-8-8-8-8-|
e(--8h10-------------------------------------|

--------------------------------------)
--------------------------------------)
10-10-10-6-6-6-6-6-8-8-8--------------)
-------------------------8-8-8-8-8-8--)

g(---------------------------10-10-10-----------|
d(----------------------------------------------|
a(-------8h10-10-10-10-10-10----------8-8-8-8-8-|
e(--8h10----------------------------------------|

8-8-8----------------------------------)
------------------10-10-10-------------)
------6-6-6-6-6-6----------------------)
---------------------------8-8-8-8-8-8-)

enjoy. comments go to eight.trace@hotmail.com