Death From Above 1979 - Black History Month Chords & Tabs

 

Black History Month Chords & Tabs

Death From Above 1979 Chords & Tabs

Version: 1 Type: Bass Tab 1 rating
1 star 2 stars 3 stars 4 stars 5 stars
comments

Black History Month Bass Tab

intro\verse 
       
|------------------------10-10-10-10-10-10-10-|
|------5-5-5-5-5-5-5-5-5----------------------|
|-0h3h5---------------------------------------|
|---------------------------------------------|
        
|--------------------10-10-10--------|
|------5-5-5-5-5-5-5----------8-8-8--|
|-0h3h5------------------------------|
|------------------------------------|


|------------------------10-10-10-10-10-10-10-|
|------5-5-5-5-5-5-5-5-5----------------------|
|-0h3h5---------------------------------------|
|---------------------------------------------|

|--------------------8-8-8-8---------------|
|------5-5-5-5-5-5-5----------10-10-10-----|
|-0h3h5------------------------------------|
|------------------------------------------|

[ Tab from: http://www.guitartabs.cc/tabs/d/death_from_above_1979/black_history_month_btab.html ]
bridge\chorus\outro
|-----------------------------------------------------------------------|
|-/5-5-5-5-5-5-5-7-7/-3-3-3-3-3-5-5/1-1-1-1-3-3/------------------------|
|-----------------------------------------------3-3-3-3-3-3-3-3-3-3-3-3-|
|-----------------------------------------------------------------------|

|--------------------|-------------------------------------|
|------5-5-5-5-5-5-5-|-5-7-7/-3-3-3-3-3-5-5/1-1-1-1-1-3-3/-|
|-0h3h5--------------|-------------------------------------|
|--------------------|-------------------------------------|

|-----------------------|
|-----------------------|
|3-3-3-3-3-3-3-3-3-3-3--|
|-----------------------|

|---------------88/7/3-----------5-5---------3-3-------------------------|
|-/5-5-5-5-5-5-5-----/-3-3-3-3-3----/1-1-1-1----3/-----------------------|
|------------------------------------------------3-3-3-3-3-3-3-3-3-3-3-3-|
|------------------------------------------------------------------------|

|--------------------|-------------------------------------|
|------5-5-5-5-5-5-5-|-5-5-5/-3-3-3-3-3-3-3/1-1-1-1-1-1-1/-|
|-0h3h5--------------|-------------------------------------|
|--------------------|-------------------------------------|
This is a great song, it's easy once you get the hang of it, the only thing that's hard is the timing.
The only way to get that is by listening to the song.
Comments