Death Cab For Cutie - What Sarah Said Chords & Tabs

 

What Sarah Said Chords & Tabs

Death Cab For Cutie Chords & Tabs

Version: 4 Type: Tab

What Sarah Said Tab

   
Death Cab For Cutie - "What Sarah Said"
Plans

This is an awesome song and no one had it right, but im pretty sure i do.
A couple changes, im 99% sure this is right.

Drop D Tuning (DADGBE)

Intro

--------12-------12-------12-------12----------------------------|
------8--------8--------8--------8-------------------------------|
---10-------10-------10-------10---------------------------------|
-----------------------------------------------------------------|
-----------------------------------------------------------------|
-----------------------------------------------------------------|

--------10-------10-------10-------10----------------------------|
------8--------8--------8--------8-------------------------------|
----9--------9--------9--------9---------------------------------|
-----------------------------------------------------------------|
-----------------------------------------------------------------|
-----------------------------------------------------------------|

--------8--------8--------8--------8-----------------------------|
------8--------8--------8--------8-------------------------------|
----7--------7--------7--------7---------------------------------|
-----------------------------------------------------------------|
-----------------------------------------------------------------|
-----------------------------------------------------------------|

--------8--------7--------8--------7-----------------------------|
------8--------8--------8--------8-------------------------------|
----5--------5--------5--------5---------------------------------|
-----------------------------------------------------------------|
-----------------------------------------------------------------|
-----------------------------------------------------------------|

Play Intro 4x

Verse

"And it came to me then..."

(Background Guitar)
    F          G          Am         C
[ Tab from: http://www.guitartabs.cc/tabs/d/death_cab_for_cutie/what_sarah_said_tab_ver_4.html ]
E---1----------3----------5----------8----------------------------|
B---1----------3----------5----------8----------------------------|
G---2----------4----------5----------9----------------------------|
D---3----------5----------7----------10---------------------------|
A-----------------------------------------------------------------|
D-----------------------------------------------------------------|

(Baseline Guitar)
    F          G          Am         E

E-----------------------------------------------------------------|
B-----------------------------------------------------------------|
G-----------------------------------------------------------------|
D---3----------5----------7----------2----------------------------|
A---3----------5----------7----------2----------------------------|
D---3----------5----------7----------2----------------------------|

"And I rationed my breathes..."

Play the intro over the verse from this point until the bridge

Bridge

"Cuz there's no comfort in the waiting room..."

    D          F          Am         E      
E-----------------------------------------------------------------|
B-----------------------------------------------------------------|
G-----------------------------------------------------------------|
D---0----------3----------7----------2----------------------------|
A---0----------3----------7----------2----------------------------|
D---0----------3----------7----------2----------------------------|

Play Bridge 3x

Then

    D          F                       
E-----------------------------------------------------------------|
B------------------------10--9--8--7--6---------------------------|
G-----------------------------------------------------------------|
D---0----------3--------------------------------------------------|
A---0----------3--------------------------------------------------|
D---0----------3--------------------------------------------------|

"But love is watching someone die..."


E-----------------3------------------3----------------------------|
B-----------------1------------------3----------------------------|
G--5555555555-----2---5555555555-----0----------------------------| 
D-----------------3------------------2----------------------------|
A-----------------------------------------------------------------|
D-----------------------------------------------------------------|

Play this throughout rest of song.
Intro comes in and both are played until they fade out in the end.