Death Cab For Cutie - What Sarah Said Chords & Tabs

 

What Sarah Said Chords & Tabs

Death Cab For Cutie Chords & Tabs

Version: 2 Type: Tab

What Sarah Said Tab

   
Death Cab For Cutie - "What Sarah Said"
Plans

this song is amazing yet apparently no one with ears has tried tabbing it.
please oh please transcribe this into piano yourself, its incredibly easy 
and so rewarding, even if you dont play piano

standard tuning

--------12-------12-------12-------12----------------------------|
------8--------8--------8--------8-------------------------------|
---10-------10-------10-------10---------------------------------|
-----------------------------------------------------------------|
-----------------------------------------------------------------|
-----------------------------------------------------------------|

--------10-------10-------10-------10----------------------------|
------8--------8--------8--------8-------------------------------|
----9--------9--------9--------9---------------------------------|
-----------------------------------------------------------------|
-----------------------------------------------------------------|
-----------------------------------------------------------------|
[ Tab from: http://www.guitartabs.cc/tabs/d/death_cab_for_cutie/what_sarah_said_tab_ver_2.html ]
--------8--------8--------8--------8-----------------------------|
------8--------8--------8--------8-------------------------------|
----7--------7--------7--------7---------------------------------|
-----------------------------------------------------------------|
-----------------------------------------------------------------|
-----------------------------------------------------------------|

--------7--------6--------7--------6-----------------------------|
------7--------7--------7--------7-------------------------------|
----5--------5--------5--------5---------------------------------|
-----------------------------------------------------------------|
-----------------------------------------------------------------|
-----------------------------------------------------------------|

do that a few times then the guitar comes in...

   F          G         Am          C

---1----------3----------0----------0----------------------------|
---1----------3----------1----------1----------------------------|
---2----------0----------2----------0----------------------------|
---3----------0----------2----------2----------------------------|
---3----------2----------0----------3----------------------------|
---1----------3--------------------------------------------------|

(you could barre all those but i think they sound better open)



then it repeats all that forever with the FGBCAG bass line over and over
it does have some chorus or bridge or something different but you can go
figure it out if its that important